Guitar Tabs, Chords and Lyrics
Major upgrade!! After one year development the new version of Chordie is now online! Please give feedback.


Satellite Blues  AC/DC

Tabbed by: Vinny A.
Album: Stiff Upper Lip
Song: Satellite Blues
Artist: AC/DC
Bassist: Cliff Williams
This cleans up the other version with some slight adjustments and proper timing.
Bass doesn't come in until right before first chorus (0:49)
[D]  
 
 G|-----------------|
 D|-----------------|
 A|-(5)-------------|
 E|-----------------|

Chorus
[A] [F#G] [F#G] [F#E] [F#] [G] [F#G]  
 
 G|-----------------|-----------------|-----------------|-----------------|
 D|-----------------|-----------------|-----------------|-----------------|
 A|-----------------|-----------------|-----------------|-----------------|
 E|-5-5-5-5-5-5-5-5-|-5-5-5-5-5-5-5-5-|-2-3-3-2-3-2-0-2-|---3-3-2-3-3-3---|

[A] [F#G] [F#G] [F#E] [G] [C] [B] [C] [B] [G]  
 
 G|-----------------|-----------------|-----------------|-----------------|
 D|-----------------|-----------------|-----------------|-----------------|
 A|-----------------|-----------------|-----------------|---3-3-2-3-2-----|
 E|-5-5-5-5-5-5-5-5-|-5-5-5-5-5-5-5-5-|-2-3-3-2-3-2-0-3-|-------------3---|

Verse 2
[A] [G] [A] [D] [G] [D] [G] [D] [F#C] [B]  
 
 G|-----------------|-----------------|-----------------|-----------------|
 D|-----------------|-----------------|-----5-5---5-----|-----------------|
 A|-----------------|-----------------|-5-------5---5---|-----------3-2---|
 E|-5-5-3---3-5-5---|-----------------|-----------------|---------3-------|

[A] [G] [A] [D] [G] [D] [G] [D] [C#D] [F#] [G#]  
 
 G|-----------------|-----------------|-----------------|-----------------|
 D|-----------------|-----------------|-----5-5---5-----|-----------------|
 A|-----------------|-----------------|-5-------5---5---|-----4-5---------|
 E|-5-5-3---3-5-5---|-----------------|-----------------|---------2///4---|

[A] [G] [A] [D] [G] [D] [G] [D] [E] [F] [E] [F#E] [G] [E]  
 
 G|-----------------|-----------------|-----------------|-----------------|
 D|-----------------|-----------------|-----5-5---5-----|-----------------|
 A|-----------------|-----------------|-5-------5---5---|-----------------|
 E|-5-5-3---3-5-5---|-----------------|-----------------|---0-1-0-2-0-3-0-|

[A] [G] [A] [D] [G] [D] [G] [D] [A]  
 
 G|-----------------|-----------------|-----------------|-----------------|
 D|-----------------|-----------------|-----5-5---5-----|-----------------|
 A|-----------------|-----------------|-5-------5---5---|-(5)-------------|
 E|-5-5-3---3-5-5---|-----------------|-----------------|-----------------|

Chorus
[A] [F#G] [F#G] [F#E] [F#] [G] [F#G]  
 
 G|-----------------|-----------------|-----------------|-----------------|
 D|-----------------|-----------------|-----------------|-----------------|
 A|-----------------|-----------------|-----------------|-----------------|
 E|-5-5-5-5-5-5-5-5-|-5-5-5-5-5-5-5-5-|-2-3-3-2-3-2-0-2-|---3-3-2-3-3-3---|

[A] [F#G] [F#G] [F#E] [G] [C] [B] [C] [B] [G]  
 
 G|-----------------|-----------------|-----------------|-----------------|
 D|-----------------|-----------------|-----------------|-----------------|
 A|-----------------|-----------------|-----------------|---3-3-2-3-2-----|
 E|-5-5-5-5-5-5-5-5-|-5-5-5-5-5-5-5-5-|-2-3-3-2-3-2-0-3-|-------------3---|

[A] [F#G] [F#G] [F#E] [F#] [G] [F#G]  
 
 G|-----------------|-----------------|-----------------|-----------------|
 D|-----------------|-----------------|-----------------|-----------------|
 A|-----------------|-----------------|-----------------|-----------------|
 E|-5-5-5-5-5-5-5-5-|-5-5-5-5-5-5-5-5-|-2-3-3-2-3-2-0-2-|---3-3-2-3-3-3---|

[A] [F#G] [F#G] [F#E] [G] [C] [G] [C] [G]  
 
 G|-----------------|-----------------|-----------------|-----------------|
 D|-----------------|-----------------|-----------------|-----------------|
 A|-----------------|-----------------|-----------------|---3-3---3-------|
 E|-5-5-5-5-5-5-5-5-|-5-5-5-5-5-5-5-5-|-2-3-3-2-3-2-0-3-|-------3---3---3-|

( Tab from: http://www.guitartabs.cc/tabs/a/ac_dc/satellite_blues_btab_ver_2.html )
[C] [G] [C] [G] [C] [G] [C] [G] [C] [D]  
 
 G|-----------------|-----------------|-----------------|-----------------|
 D|-----------------|-----------------|-----------------|-----------------|
 A|---3-3---3-------|---3-3---3----(5)|-----------------|-----------------|
 E|-------3---3---3-|-------3---3-----|-----------------|-----------------|

Solo
[A] [F#G] [F#G] [F#E] [F#] [G] [F#G]  
 
 G|-----------------|-----------------|-----------------|-----------------|
 D|-----------------|-----------------|-----------------|-----------------|
 A|-----------------|-----------------|-----------------|-----------------|
 E|-5-5-5-5-5-5-5-5-|-5-5-5-5-5-5-5-5-|-2-3-3-2-3-2-0-2-|---3-3-2-3-3-3---|

[A] [F#G] [F#G] [F#E] [G] [C] [B] [C] [B] [G]  
 
 G|-----------------|-----------------|-----------------|-----------------|
 D|-----------------|-----------------|-----------------|-----------------|
 A|-----------------|-----------------|-----------------|---3-3---3-2-----|
 E|-5-5-5-5-5-5-5-5-|-5-5-5-5-5-5-5-5-|-2-3-3-2-3-2-0-3-|-------3-----3---|

[A] [D] [G] [F#G]  
 
 G|-----------------|-----------------|-----------------|-----------------|
 D|-----------------|-----------------|-----------------|---5-5-4-5-5-5---|
 A|-----------------|---------------5-|-5-5-5-5-5-5-5-5-|-5---------------|
 E|-5-5-5-5-5-5-5-5-|-5-5-5-5-5-5-5---|-----------------|-----------------|

[A] [D] [G] [D] [G] [D] [G] [D] [G] [D]  
 
 G|-----------------|-----------------|-----------------|-----------------|
 D|-----------------|-----------------|---5-5---5-------|---5-5---5-------|
 A|-----------------|---------------5-|-------5---5---5-|-------5---5---5-|
 E|-5-5-5-5-5-5-5-5-|-5-5-5-5-5-5-5---|-----------------|-----------------|

[G] [D] [G] [D]  
 
 G|-----------------|-----------------|
 D|---5-5---5-------|-----------------|
 A|-------5---5---5-|-----------------|
 E|-----------------|-----------------|

Chorus/Outro
[A] [F#G] [F#G] [F#E] [G] [C] [G] [C] [G]  
 
 G|-----------------|-----------------|-----------------|-----------------|
 D|-----------------|-----------------|-----------------|-----------------|
 A|-----------------|-----------------|-----------------|---3-3---3-------|
 E|-5-5-5-5-5-5-5-5-|-5-5-5-5-5-5-5-5-|-2-3-3-2-3-2-0-3-|-------3---3-3-3-|

[A] [F#G] [F#G] [F#E] [G] [C] [G] [C] [G]  
 
 G|-----------------|-----------------|-----------------|-----------------|
 D|-----------------|-----------------|-----------------|-----------------|
 A|-----------------|-----------------|-----------------|---3-3---3-------|
 E|-5-5-5-5-5-5-5-5-|-5-5-5-5-5-5-5-5-|-2-3-3-2-3-2-0-3-|-------3---3-3-3-|

[A] [F#G] [F#G] [F#E] [G] [C] [G] [C] [G]  
 
 G|-----------------|-----------------|-----------------|-----------------|
 D|-----------------|-----------------|-----------------|-----------------|
 A|-----------------|-----------------|-----------------|---3-3---3-------|
 E|-5-5-5-5-5-5-5-5-|-5-5-5-5-5-5-5-5-|-2-3-3-2-3-2-0-3-|-------3---3-3-3-|

[A] [F#G] [F#G] [F#E] [G] [C] [G] [C] [G]  
 
 G|-----------------|-----------------|-----------------|-----------------|
 D|-----------------|-----------------|-----------------|-----------------|
 A|-----------------|-----------------|-----------------|---3-3---3-------|
 E|-5-5-5-5-5-5-5-5-|-5-5-5-5-5-5-5-5-|-2-3-3-2-3-2-0-3-|-------3---3-3-3-|

[C] [F#C] [F#] [C] [F#C] [F#] [A]  
 
 G|-----------------|-----------------|-----------------|-----------------|
 D|-----------------|-----------------|-----------------|-----------------|
 A|---3-3---3-------|---3-3---3----(5)|-----------------|-----------------|
 E|-------3---3---3-|-------3---3-----|-----------------|-----------------|

(half speed)
[D] [G] [D] [G] [D] [A]  
 
 G|-----------------|-----------------|
 D|---5-5---5-------|-----------------|
 A|-5-----5---5-----|-----------------|
 E|-----------------|---------------5-|


Important: The song above is NOT stored on the Chordie server. The original song is hosted at www.guitartabs.cc. Chordie works as a search engine and provides on-the-fly formatting. Chordie does not index songs against artists'/composers' will. To remove this song please click here.

Text color:
Chord color:
Chord grids: 
Font size:    
Page size: 

A B C D E F F# G G#
Rate #1 of 1 versions

Login - add to songbook

SHARE PAGE  



You need to log in to post comments