Guitar Tabs, Chords and Lyrics
Major upgrade!! After one year development the new version of Chordie is now online! Please give feedback.


Home Again   Shihad

 
 3--------3--------RP--3--LP--LP--3--------3--------RP--3--LP--LP
 3--------3--------RP--3--LP--LP--3--------3--------RP--3--LP--LP
 0--------0--------RP--0--LP--LP--0--------0--------RP--0--LP--LP
 --------------------------------------------------------------------------
 --------------------------------------------------------------------------
 --------------------------------------------------------------------------

 


 


 v..........v..........v......n..v.....n....v..........v..........v......n..v.....n


 

 
 2--------2--------RP--2--LP--LP--2--------2--------RP--2--LP--LP
 3--------3--------RP--3--LP--LP--3--------3--------RP--3--LP--LP
 0--------0--------RP--0--LP--LP--0--------0--------RP--0--LP--LP
 --------------------------------------------------------------------------
 --------------------------------------------------------------------------
 --------------------------------------------------------------------------

 


 


 phils middle eight riff


 v..........v..........v......n..v.....n....v..........v..........v......n..v.....n


 

 
 3--------3--------RP--3--LP--LP--3--------3--------RP--3--LP--LP
 3--------3--------RP--3--LP--LP--3--------3--------RP--3--LP--LP
 0--------0--------RP--0--LP--LP--0--------0--------RP--0--LP--LP
 --------------------------------------------------------------------------
 --------------------------------------------------------------------------
 --------------------------------------------------------------------------

 


 


 jons verse chords


 

 
 -------------------------------------------3-3-3----------------------------------
 ------------------3-3-3------------------3-3-3-----------------------------RM-3
 ------------------2-2-2------2-2-2-----0-0-0-----------------------------RM-2
 2----------------0-0-0------2-2-2-----0-0-0-----------------------------RM-0
 2-----------------------------0-0-0----------------------------------------------
 0-----------------------------------------3-3-3----------------------------------

 


 


 jons chorus riff


 

 
 -----------------------------------------------------------------
 -----------------------------------------------------------------
 9------9------RM-12----------9------9------RM-12----------
 9------9------RM-12----------9------9------RM-12----------
 7------7------RM-10----------7------7------RM-10----------
 -----------------------------------------------------------------
 -----------------------------------------------------------------
 -----------------------------------------------------------------
 9------9------RM-7------------9------9------RM-7-----------
 9------9------RM-7------------9------9------RM-7-----------
 7------7------RM-5------------7------7------RM-5-----------
 -----------------------------------------------------------------
 -----------------------------------------------------------------
 -----------------------------------------------------------------
 9------9------RM-12----------9------9------RM-12----------
 9------9------RM-12----------9------9------RM-12----------
 7------7------RM-10----------7------7------RM-10----------
 -----------------------------------------------------------------
 -----------------------------------------------------------------
 -----------------------------------------------------------------
 9------9------RM-7------------9------9------RM-7-------8--
 9------9------RM-7------------9------9------RM-7-------8--
 7------7------RM-5------------7------7------RM-5-------6--
 -----------------------------------------------------------------

 


 jons middle eight figure


 

 
 ----------------------------------------------------------------------------
 ----------------------------------------------------------------------------
 -----------0------------0--------------------------------------------------
 -----------5------------5--------5---------5---5---5---5---5---5---5--
 4-------------------4-------4---5---------5---5---5---5---5---5---5---

 


 jons solo


 

 
 --------------------------------------------------------------------------------------------------------
 --------------------------------------------------------------------------------------------------------
 --------------------------------------------------------------------------------------------------------
 ----------------5------7------5-----------------------------------------------------------------------
 ---5---5---7------7-----------------------------------------------------------------------------------
 --------------------------------------------------------------------------------------------------------
 --------------------------------------------------------------------------------------------------------
 --------------------------------------------------------------------------------------------------------
 --------------------------------------------------------------------------------------------------------
 ----------------5---------------------------------------------------------------------------------------
 ---5---5---7------7---5-------7-------7------------------------------7-------5---------------------
 ---------------------------------------------------------------------------------------------------------
 ---------------------------------------------------------------------------------------------------------
 ---------------------------------------------------------------------------------------------------------
 ---------------------------------------------------------------------------------------------------------
 ----------------5------7------5-------------------------------------------------------------------------
 ---5---5---7------7------------------------------------------------------------------------------------
 ----------------------------------------------------------------------------------------------------------
 ----------------------------------------------------------------------------------------------------------
 ----------------------------------------------------------------------------------------------------------
 ----------------------------------------------------------------------------------------------------------
 ----------------5----------------------------------------------------------------------------------------
 ---5---5---7------7---5-------7-------7------------7-------5-------5---5---5---5---5---5---------
 ----------------------------------------------------------------------------------------------------------

 


 jons outro figure


 

 
 3-----------3-----------3---------2-----------2--------2--------
 ----3-----------3-----------3---------3-----------3--------3----
 --------0-----------0----------------------0-----------0---------
 --------------------------------------------------------------------
 --------------------------------------------------------------------
 --------------------------------------------------------------------


Important: The song above is NOT stored on the Chordie server. The original song is hosted at www.guitartabs.cc. Chordie works as a search engine and provides on-the-fly formatting. Chordie does not index songs against artists'/composers' will. To remove this song please click here.

This song is displayed as text-only. Transposing and tuning is only available for chordpro-songs.
Rate #1 of 4 versions

Jango Player

Login - add to songbook

SHARE PAGE  



You need to log in to post comments