Guitar Tabs, Chords and Lyrics
Major upgrade!! After one year development the new version of Chordie is now online! Please give feedback.


Angry Tree  Life of Agony

tabbed by geri
this song is dedicated to aga!
intro/verse/chorus:
(play it clean)
[Bb] [Gm] [F] [E#]  
 
 e|----1--------3--------1----------6-------------------------------
 b|----3--------3--------1----------8-------------------------------
 g|----3--------3--------2----------8-------------------------------
 D|----3--------5--------3----------8-------------------------------
 A|----1--------5--------3----------6-------------------------------
 E|-------------3--------1------------------------------------------

bridge:
[G] [Bb] [G] [Bb]  
 
 e|-------------------------------------------------------------
 b|-------------------------------------------------------------
 g|-------------3---------------------3-------------------------
 D|-------5-----3--------------5------3-------------------------
 A|-------5-----1-----3/5------5------1------3/5----------------
 E|-------3--------------------3--------------------------------

solo:
 
 e|-------------------------------------------------------------
 b|-------------------------------------------------------------
 g|----------------------------7-7^-----------------------------
 D|----8--8-7---7-8-------7-8-------8---8--7-8--8-10------------
 A|--------------------8------------------------------6---------
 E|-------------------------------------------------------------

repeat 4x repeat 3x and 4x fast
 
 e|-----------|---13-11-10--------------|-------------------------
 b|--10-10^---|-------------13-11--10---|-----10-10^--------------
 g|-----------|-------------------------|-------------------------
 D|-----------|-------------------------|-------------------------
 A|-----------|-------------------------|-------------------------
 E|-----------|-------------------------|-------------------------

chorus with distortion:
[Bb] [G] [F] [E#]  
 
 e|-------------------------------------------------------------
 b|-------------------------------------------------------------
 g|-----3------------------------8------------------------------
 D|-----3-------5-------3--------8------------------------------
 A|-----1-------5-------3--------6------------------------------
 E|-------------3-------1---------------------------------------

end on:
[Bb]  
 
 e|-------------
 b|-------------
 g|----3--------
 D|----3--------
 A|----1--------
 E|-------------


Important: The song above is NOT stored on the Chordie server. The original song is hosted at www.xguitar.com. Chordie works as a search engine and provides on-the-fly formatting. Chordie does not index songs against artists'/composers' will. To remove this song please click here.

Text color:
Chord color:
Chord grids: 
Font size:    
Page size: 

Bb F G Gm
Rate #1 of 2 versions

Jango Player

Login - add to songbook

SHARE PAGE  




You need to log in to post comments