Guitar Tabs, Chords and Lyrics
Major upgrade!! After one year development the new version of Chordie is now online! Please give feedback.


Snoop Dog, Baby  Reel Big Fish

i didnt do this tab but i thought ide put it up anyways
Snoop Dog Baby
Reel Big Fish
intro:
[C] [B] [A]  
 
 e|------|------------|------------|------------|-------------|
 B|------|------------|------------|------------|-------------|
 G|------|------------|------------|------------|-------------|
 D|------|-5--------5-|-4--------4-|-2----------|-(2)---****--|
 A|------|-3~~~~~---3-|-2~~~~~---2-|-0----------|-(0)---02320-|
 E|-/?\--|------------|------------|------------|-------------|

riff 1:
G D\ C / D
 
 e||--x-3-x-3-x-3-x---|-------------------4x||
 B||--x-3-x-3-x-3-x-7\|(5)-5-x-5-x-5/(7)-7--|| 4th time w/o last measure
 G||*-x-4-x-4-x-4-x-7\|(5)-5-x-5-x-5/(7)-7-*|| except first note(the slide)
 D||*-x-5-x-5-x-5-x-7\|(5)-5-x-5-x-5/(7)-7-*||
 A||---(5)-(5)-(5)--5\|(3)-3-x-3-x-3/(5)-5--||
 E||---(3)-(3)-(3)----|---------------------||

verse: riff 1 4x
chorus: riff 1 2x, then a C chord, then
interlude:
[D] [Em] [G] [D] [Em] [G]  
 
 e|-------------------|--------------------------|------------------|-----3------|
 B|-----7--------8----|-12----12----12^13^12-----|-7-----7------8---|-3------3---|
 G|------(7)------(9)-|-12-12----12---------12---|---7------------9-|-4--4-----4-|
 D|---7--------9------|-12--------------------12-|-----7------9-----|-5--5-------|
 A|-5--------7--------|-10-----------------------|----------7-------|-5--5-------|
 E|-------------------|--------------------------|------------------|-3----------|

then riff x:
[C] [B] [A]  
 
 e|-------------|--------------|
 B|-------------|--------------|
 G|-------------|--------------|
 D|-5---5-4---4-|-2------****--|
 A|-3~--3-2~--2-|-0------02320-|
 E|-------------|--------------|

then riff 1 8x, then a c chord,
then interlude,
then riff x, then:
[G] [A] [C] [B] [G] [A] [C]  
 
 e|-3--5--------|-3--5-----------|
 B|-3--5--5---4-|-3--5--5--------| clean then distorted at the r.h. muted
 G|-4--6--5---4-|-4--6--5-xxxxxx-| part (the x's)
 D|-5--7--5---4-|-5--7--5-xxxxxx-|
 A|-5--7--3---2-|-5--7--3-xxxxxx-|
 E|-3--5--------|-3--5-----------|

[G] [A] [C]  
 
 e||---------------||
 B||---------------|| distorted, played under the following
 G||*-------5---4-*|| lead guitar part, except during the chords.
 D||*-5--7--5---4-*||
 A||--5--7--3---2--|| (lead guitar not in time, broken into phrases,
 E||--3--5---------|| listen to cd for timing.)
 e|---------------------7--------|-----------------|-12-10-12-101210~-\|
 B|---7^8-8-8-7^8-8-10----10-8~\-|--8-7-8^7-8^7----|-------------------|
 G|------------------------------|--------------7~-|-------------------|
 D|------------------------------|-----------------|-------------------|
 A|------------------------------|-----------------|-------------------|
 E|------------------------------|-----------------|-------------------|
 e|-8-7-8-787~--78~|----3-3---8888888-|---------------------|----------|
 B|----------------|-7--3-3---8888888-|---7-8-10-8-7^8------|----------|
 G|----------------|-7--4-4-9-9999999-|/7--------------7~~--|--riff-x--|
 D|----------------|-7--5-5-10--------|---------------------|----------|
 A|----------------|-5--5-5-10--------|------------------x\-|----------|
 E|----------------|----3-3-8---------|------------------x\-|----------|

during sax solo, play riff 1 4x
then chorus:play riff 1 4x, then a C chord
then interlude,
then riff x w/
 
 e|-------------|------------|-x-3----||
 B|-5~--5-3~--3-|-2~---------|-x-3----||
 G|-------------|------------|-x-4----||
 D|-------------|------****--|-x-5----||
 A|-------------|------02320-|--------||
 E|-------------|------------|--------||


Important: The song above is NOT stored on the Chordie server. The original song is hosted at www.xguitar.com. Chordie works as a search engine and provides on-the-fly formatting. Chordie does not index songs against artists'/composers' will. To remove this song please click here.

Text color:
Chord color:
Chord grids: 
Font size:    
Page size: 

A B C D Em G
Rate #1 of 2 versions

Login - add to songbook

SHARE PAGE  



You need to log in to post comments