Guitar Tabs, Chords and Lyrics
Major upgrade!! After one year development the new version of Chordie is now online! Please give feedback.


Hold on to Your Dream  Stratovarius

tabbed by Landis Bender
landis_bender@yahoo.com
E (INTRO) E
 
 E---|---------------------|----------------------|---------------
 B---|---------------------|----------------------|---------------
 G---|/9---9-----11---11---|-12---12-----14-12-11-|---------------
 D---|---9----------9------|----9-----------------|---------------
 A---|---------------------|----------------------|---------------
 E---|---------------------|----------------------|---------------

[C]  
 
 E-----------------------------|----------------------------------
 B-----------------------------|----------------------------------
 G---12-----11-----------12-11-|----------------------------------
 D-----------------------------|----------------------------------
 A-----------------------------|----------------------------------
 E-----------------------------|----------------------------------

[C] [E]  
 
 E----------------------------------|-------------------------|---
 B----------------------------------|-------------------------|---
 G----------------------------------|/9-------9---11-------11-|---
 D---14-------------------------7-7-|-----9------------9------|---
 A----------------------5---5---5-5-|-------------------------|---
 E----------------------3---3-------|-------------------------|---

[E] [C]  
 
 E----------------------------|-------------|---------------------
 B-------------------------15-|-12----------|---------------------
 G---12---12-----14---12------|----14-12-11-|---------------------
 D------9---------------------|-------------|---------------------
 A----------------------------|-------------|---------------------
 E----------------------------|-------------|---------------------

C (END INTRO)
 
 E-------------------------------|--------------------------------
 B-------------------------------|--------------------------------
 G---12-11-----------------------|--------------------------------
 D---------14-14-------------7-7-|--------------------------------
 A---------------------5---5-5-5-|--------------------------------
 E---------------------3---3-----|--------------------------------

[E] [Ba]  
 
 E-----------------------------|----------------------------------
 B-----------------------------|----------------------------------
 G-----------------------------|----------------------------------
 D-----9-----------------------|----------------------------------
 A-----7-----------------------|----------------------------------
 E-----0-----------------------|----------------------------------
 E-------------------------------------------------------|--------
 B-------------------------------------------------------|--------
 G-------------------------------------------------------|--------
 D-------------------------------------------------------|--------
 A-------------------------------------------------------|--------
 E-------------------------------------------------------|--------

(Gtr 1 swells in)
 
 E-------19-------------17-15-------------------------------------
 B----------------------------19-17-15----------------------------
 G-------------------------------------17-16-14-------------------
 D----------------------------------------------17-16-14----------
 A-------------------------------------------------------17-15----
 E----------------------------------------------------------------
 E-----------|-----------------------------------------------|----
 B-----------|-----------------------------------------------|----
 G-----------|-----------------------------------------------|----
 D-----------|-------------------------------------------7-7-|----
 A---14\12---|-------------------------------------5---5-5-5-|----
 E-----------|-------------------------------------3---3-----|----

Day at the School
 
 E-------------------------------------|--------------------------
 B-------------------------------------|--------------------------
 G-----9-------9-----9-----9-----9---9-|--------------------------
 D-----9-------9-----9-----9-----9---9-|--------------------------
 A-----7---------7-----7-7---7-7---7---|--------------------------
 E-------0-0-0-------------------------|--------------------------

Teacher's a bully You're
 
 E-----------------------------------|----------------------------
 B-----------------------------------|----------------------------
 G-------9-----9---9-----9-----9---9-|----------------------------
 D-------9-----9---9-----9-----9---9-|----------------------------
 A---7-7---7-7---7---7-7---7-7---7---|----------------------------
 E-----------------------------------|----------------------------

mobbed as a rule
 
 E-----------------------------------|----------------------------
 B-----------------------------------|----------------------------
 G-------7-----7---7-----7-----7---7-|----------------------------
 D-------7-----7---7-----7-----7---7-|----------------------------
 A---5-5---5-5---5---5-5---5-5---5---|----------------------------
 E-----------------------------------|----------------------------

nothing from TV your
 
 E-----------------------------------|----------------------------
 B-----------------------------------|----------------------------
 G-------7-----7---7-----7-----7---7-|----------------------------
 D-------7-----7---7-----7-----7---7-|----------------------------
 A---5-5---5-5---5---5-5---5-5---5---|----------------------------
 E-----------------------------------|----------------------------

folks are away
 
 E-----------------------------------|----------------------------
 B-----------------------------------|----------------------------
 G-------9-----9---9-----9-----9---9-|----------------------------
 D-------9-----9---9-----9-----9---9-|----------------------------
 A---7-7---7-7---7---7-7---7-7---7---|----------------------------
 E-----------------------------------|----------------------------

you are trapped inside this
 
 E-------------------------------------|--------------------------
 B-------------------------------------|--------------------------
 G---------9-----9---9-----9-----9---9-|--------------------------
 D---------9-----9---9-----9-----9---9-|--------------------------
 A-----7-7---7-7---7---7-7---7-7---7---|--------------------------
 E-------------------------------------|--------------------------

house you must stay
 
 E-----------------------------------|----------------------------
 B-----------------------------------|----------------------------
 G-------7-----7---7-----7-----7---7-|----------------------------
 D-------7-----7---7-----7-----7---7-|----------------------------
 A---5-5---5-5---5---5-5---5-5---5---|----------------------------
 E-----------------------------------|----------------------------

home
 
 E-----------------------------------|----------------------------
 B-----------------------------------|----------------------------
 G-------5-----5---5-----5-----5---5-|----------------------------
 D-------5-----5---5-----5-----5---5-|----------------------------
 A---3-3---3-3---3---3-3---3-3---3---|----------------------------
 E-----------------------------------|----------------------------

now it's time for you to move on
 
 E-----------------------------------|-------------|--------------
 B-----------------------------------|-------------|--------------
 G-----------------------------------|-------------|--------------
 D---7-------------------------------|-7-----------|--------------
 A---5---------------------------7h9-|-5-----------|--------------
 E-----------------------------------|-------------|--------------

Leave your s
 
 E-----------------------|----------------------------------------
 B-----------------------|----------------------------------------
 G-----------------------|----------------------------------------
 D---9-------------------|----------------------------------------
 A---7-------------------|----------------------------------------
 E---0-------------------|----------------------------------------
 E-------------------------------------------|--------------------
 B-------------------------------------------|--------------------
 G-------------------------------------------|--------------------
 D---9-------------------------------------7-|--------------------
 A---7-------------------------------------5-|--------------------
 E---0---------------------------------------|--------------------

don't let them
 
 E-------------------------------------|--------------------------
 B-------------------------------------|--------------------------
 G-------------------------------------|--------------------------
 D---5---------------------------------|--------------------------
 A---3---------------------------------|--------------------------
 E-------------------------------------|--------------------------
 E----------------------------------------------------------------
 B----------------------------------------------------------------
 G---2-----2-----2-2-2-2------------------------------------------
 D---2-----2-----2-2-2-2------------------------------------------
 A---0-----0-----0-0-0-0------------------------------------------
 E----------------------------------------------------------------

haunt you for
 
 E-----------------------|----------------------------------------
 B-----------------------|----------------------------------------
 G---2-----2-----2-2-2-2-|----------------------------------------
 D---2-----2-----2-2-2-2-|----------------------------------------
 A---0-----0-----0-0-0-0-|----------------------------------------
 E-----------------------|----------------------------------------
 E---------------------------------------------|------------------
 B---------------------------------------------|------------------
 G---------------------------------------------|------------------
 D---5-----5-----5-5-5-5-5-------5-----5-5-5-5-|------------------
 A---2-----2-----2-2-2-2-2-------2-----2-2-2-2-|------------------
 E---------------------------------------------|------------------

ver
 
 E-----------------------------------------------------|----------
 B-----------------------------------------------------|----------
 G-----------------------------------------------------|----------
 D-----4-----4-----4-4-4-4---4-------------------------|----------
 A-----2-----2-----2-2-2-2---2-------------------------|----------
 E-----------------------------------------------------|----------

CHORUS
 
 E-------------------------------------------|--------------------
 B-------------------------------------------|--------------------
 G-------------------------------------------|--------------------
 D---9---9-----9-9-9-9-9-----9-------9-9-9-9-|--------------------
 A---7---7-----7-7-7-7-7-----7-------7-7-7-7-|--------------------
 E---0---------------------------------------|--------------------

Same pattern throughout chorus
 
 E---------------------------------------------------|------------
 B---------------------------------------------------|------------
 G---------------------------------------------------|------------
 D---5-----------------------------------------------|------------
 A---3-----------------------------------------------|------------
 E---------------------------------------------------|------------
 E-----------------------------------------|----------------------
 B-----------------------------------------|----------------------
 G-----------------------------------------|----------------------
 D-----------------------------------------|----------------------
 A---5-------------------------------------|----------------------
 E---3-------------------------------------|----------------------
 E-----------------------------------------|-----|-|--------------
 B-----------------------------------------|-----|-|--------------
 G-----------------------------------------|-----|-|--------------
 D---7-----------------8-------------------|-----|-|--------------
 A---5-----------------6-------------------|-----|-|--------------
 E-----------------------------------------|-----|-|--------------

This is your chance, your love, your
 
 E-----------------------------------------------------|----------
 B-----------------------------------------------------|----------
 G-----------------------------------------------------|----------
 D-----9-----------------------------------------------|----------
 A-----7-----------------------------------------------|----------
 E-----0-----------------------------------------------|----------

romance. Hold on to y
 
 E---------------------------------------|------------------------
 B---------------------------------------|------------------------
 G---------------------------------------|------------------------
 D---5-----------------------------------|------------------------
 A---3-----------------------------------|------------------------
 E---------------------------------------|------------------------
 E---------------------------------------------------|------------
 B---------------------------------------------------|------------
 G---------------------------------------------------|------------
 D---------------------------------------------------|------------
 A-----5---------------------------------------------|------------
 E-----3---------------------------------------------|------------

never give up in your life
 
 E---------------------------------------|------------------------
 B---------------------------------------|------------------------
 G---------------------------------------|------------------------
 D-----7-----------------8---------------|------------------------
 A-----5-----------------6---------------|------------------------
 E---------------------------------------|------------------------
 E-----------------------|----------------------------------------
 B-----------------------|----------------------------------------
 G-----------------------|----------------------------------------
 D---5-------------------|----------------------------------------
 A---3-------------------|----------------------------------------
 E-----------------------|----------------------------------------

Hold on to your dream
 
 E-----------------------------------------------|----------------
 B-----------------------------------------------|----------------
 G-----------------------------------------------|----------------
 D---7-------------------------------------------|----------------
 A---5-------------------------------------------|----------------
 E-----------------------------------------------|----------------
 E----------------------------------------------------------------
 B----------------------------------------------------------------
 G----------------------------------------------------------------
 D----------------------------------------------------------------
 A----------------------------------------------------------------
 E----------------------------------------------------------------

(For the solo use rhythm of INTRO)
 
 E----------------------------------------------------------------
 B----------------------------------------------------------------
 G----------------------------------------------------------------
 D----------------------------------------------------------------
 A----------------------------------------------------------------
 E----------------------------------------------------------------

Repeat Chorus until fade out
 
 E-------------------------|--------------------------------------
 B-------------------------|--------------------------------------
 G-------------------------|--------------------------------------
 D-------------------------|--------------------------------------
 A-------------------------|--------------------------------------
 E-------------------------|--------------------------------------

=================================================================
== Created with a demo version of BUCKET O' TAB ==
== tablature creation software for Windows ==
== http://www.his.com/~gse/bucket ==
=================================================================

Important: The song above is NOT stored on the Chordie server. The original song is hosted at www.xguitar.com. Chordie works as a search engine and provides on-the-fly formatting. Chordie does not index songs against artists'/composers' will. To remove this song please click here.

Text color:
Chord color:
Chord grids: 
Font size:    
Page size: 

Ba C E
Rate #4 of 5 versions

Login - add to songbook

SHARE PAGE  




You need to log in to post comments