Guitar Tabs, Chords and Lyrics
Major upgrade!! After one year development the new version of Chordie is now online! Please give feedback.


I Am Fred Astaire   Taking Back Sunday

 
 E|----------------------------
 B|----------------------------

 


 G|--7~~~~~~~~~~~~7~~~~~7~~7~--


 

 
 D|--7~~~~~~~~~~~~------7~~----
 A|--5~~~~~~~~~~~~------5~~----
 E|----------------------------
 E]------------------------------------
 B]------------------------------------

 


 [G)--77777777777777777777777777777777--]D)--xxxxxxxxxxxxxxxxxxxxxxxxxxxxxxxx--


 [A)--55555555555555555555555555555555--]  

 
 E]------------------------------------

 


 


 While guitar 2 does


 


 

 
 E]------------------------------------
 B]------------------------------------

 


 [A)--55555555555555555555555555555555--]  

 
 E]------------------------------------

 


 


 Verse 1 2X


 


 

 
 E|-------------------------------------------------5555555555555555--
 B|---------------------------------7777777777777777xxxxxxxxxxxxxxxx--

 


 G|-77777777777777777777777777777777xxxxxxxxxxxxxxxx2222222222222222--


 

 
 D|-xxxxxxxxxxxxxxxxxxxxxxxxxxxxxxxx4444444444444444------------------
 A|-55555555555555555555555555555555----------------------------------
 E|-------------------------------------------------------------------

 


 


 As Guitar 2 does


 


 

 
 E]---------------------------------
 B]---------------------------------
 G]--7~~~~~~7~~~~~------------------
 D]--7~~~~~~7~~~~~---7~~~~~x-7~~~~--
 A]--5~~~~~~5~~~~~---7~~~~~x-7~~~~--
 E]------------------5~~~~~x-7~~~~--

 


 


 Pre Chorus


 


 

 
 E|--------------------------5555555---
 B|----------7777777777777777xxxxxxx---

 


 G|-777777777xxxxxxxxxxxxxxxx2222222---


 

 
 D|-xxxxxxxxx4444444444444444----------
 A|-555555555--------------------------
 E|------------------------------------

 


 


 As Guitar 2 goes


 


 

 
 E]------------------------------------
 B]------------------------------------

 


 [A)--55555555555555555555555555555555--]  

 
 E]------------------------------------

 


 


 Verse 2 2X


 


 

 
 E|-------------------------------------------------5555555555555555--
 B|---------------------------------7777777777777777xxxxxxxxxxxxxxxx--

 


 G|-77777777777777777777777777777777xxxxxxxxxxxxxxxx2222222222222222--


 

 
 D|-xxxxxxxxxxxxxxxxxxxxxxxxxxxxxxxx4444444444444444------------------
 A|-55555555555555555555555555555555----------------------------------
 E|-------------------------------------------------------------------

 


 


 Guitar 2 goes


 


 

 
 E]---------------------------------
 B]---------------------------------
 G]--7~~~~~~7~~~~~------------------
 D]--7~~~~~~7~~~~~---7~~~~~x-7~~~~--
 A]--5~~~~~~5~~~~~---7~~~~~x-7~~~~--
 E]------------------5~~~~~x-7~~~~--

 


 


 Chorus 2x


 


 

 
 E|-------------------------------------------------------------------
 B|-------------------------------------------------------------------
 G|-7~~~~~~~7~~~~~~~----------------5~~~~~~~5~~~~~~~------------------

 


 D|-7~~~~~~~7~~~~~~~7~~~~~~~7~~~~~~~5~~~~~~~5~~~~~~~5~~~~~~~5~~~~~~~--


 A|-5~~~~~~~5~~~~~~~7~~~~~~~7~~~~~~~3~~~~~~~3~~~~~~~5~~~~~~~5~~~~~~~--


 

 
 E|-----------------5~~~~~~~5~~~~~~~----------------3~~~~~~~3~~~~~~~--

 


 


 Guitar 2


 


 

 
 E|-------------------------------------------------------------------
 B|-------------------------------------------------------------------
 G|-7777777777777777----------------5555555555555555------------------

 


 D|-7777777777777777777777777777777755555555555555555555555555555555--


 A|-5555555555555555777777777777777733333333333333335555555555555555--


 

 
 E|-----------------5555555555555555----------------3333333333333333--

 


 


 Post Chorus


 


 

 
 E|-------------------------------------

 


 B|-8887778887778877--8887778887778877--


 G|-xxxxxxxxxxxxxxxx--xxxxxxxxxxxxxxxx--


 D|-5554445554445544--5554445554445544--


 

 
 A|-------------------------------------
 E|-------------------------------------

 


 


 While Guitar 2 goes


 


 

 
 E|--------------------------------------
 B|--------------------------------------
 G|--------------------------------------
 D|--7~~~~~------------------------------
 A|--7~~~~~------------------------------
 E|--5~~~~~--X////////////////////-------

 


 


 Verse 3 2x


 


 

 
 E|-------------------------------------------------5555555555555555--
 B|---------------------------------7777777777777777xxxxxxxxxxxxxxxx--

 


 G|-77777777777777777777777777777777xxxxxxxxxxxxxxxx2222222222222222--


 

 
 D|-xxxxxxxxxxxxxxxxxxxxxxxxxxxxxxxx4444444444444444------------------
 A|-55555555555555555555555555555555----------------------------------
 E|-------------------------------------------------------------------

 


 


 Guitar 2 goes


 


 

 
 E]---------------------------------
 B]---------------------------------
 G]--7~~~~~~7~~~~~------------------
 D]--7~~~~~~7~~~~~---7~~~~~x-7~~~~--
 A]--5~~~~~~5~~~~~---7~~~~~x-7~~~~--
 E]------------------5~~~~~x-7~~~~--

 


 


 Chorus 2x


 


 

 
 E|-------------------------------------------------------------------
 B|-------------------------------------------------------------------
 G|-7~~~~~~~7~~~~~~~----------------5~~~~~~~5~~~~~~~------------------

 


 D|-7~~~~~~~7~~~~~~~7~~~~~~~7~~~~~~~5~~~~~~~5~~~~~~~5~~~~~~~5~~~~~~~--


 A|-5~~~~~~~5~~~~~~~7~~~~~~~7~~~~~~~3~~~~~~~3~~~~~~~5~~~~~~~5~~~~~~~--


 

 
 E|-----------------5~~~~~~~5~~~~~~~----------------3~~~~~~~3~~~~~~~--

 


 


 Guitar 2


 


 

 
 E|-------------------------------------------------------------------
 B|-------------------------------------------------------------------
 G|-7777777777777777----------------5555555555555555------------------

 


 D|-7777777777777777777777777777777755555555555555555555555555555555--


 A|-5555555555555555777777777777777733333333333333335555555555555555--


 

 
 E|-----------------5555555555555555----------------3333333333333333--

 


 


 Outro


 


 

 
 E|-----------------------------
 B|-8887778887778877---8~~~~~---
 G|-xxxxxxxxxxxxxxxx---x~~~~~---
 D|-5554445554445544---5~~~~~---
 A|-----------------------------
 E|-----------------------------

 


 


 While Guitar 2 goes


 


 

 
 E|-----------------------------
 B|-----------------------------
 G|-----------------------------
 D|--555555555555555---5~~~~~---
 A|--555555555555555---5~~~~~---
 E|--333333333333333---3~~~~~---


Important: The song above is NOT stored on the Chordie server. The original song is hosted at www.xguitar.com. Chordie works as a search engine and provides on-the-fly formatting. Chordie does not index songs against artists'/composers' will. To remove this song please click here.

This song is displayed as text-only. Transposing and tuning is only available for chordpro-songs.
Rate #1 of 1 versions

Login - add to songbook

SHARE PAGE  




You need to log in to post comments