Someday Ill Be Saturday Night

Bon Jovi

e----------------------------------------------------------------------------|

B----------------------------------------------------------------------------|
G----------------------------------------------------------------------------|
D------7h9-7-----------------------------------------------------------------|
A--7/9------7h9-7------------------------------------------------------------|
E----------------------------------------------------------------------------|

 EA
 Hey men, I´m alive, I´am taking each day and night at a time

(just 1)B5
I´m feeling like a monday

no chord A A
but someday I´ll be saturday night

Here is the little riff

Riff 1:
e----------------------------------------------------------------------------|
B----------------------------------------------------------------------------|
G----------------------------------------------------------------------------|
D----------------------------------------------------------------------------|
A--7-----6-----4-----2-----0-0-----------------------------------------------|
E----0-0---0-0---0-0---0-0-----4---------------------------------------------|


Verse 1:

 EE
 Hey my name is jim, where did i go wrong?

 G#mG#m
 My life is a bargant basement, all the good shits gone

 AA
 I just hold on a job, where do i belong?

 E
 you are sleeping in my car

 B5
 my dreams move on

---Riff  1---


 EE
 My name is billy jean, my love has been bought and sold

 G#mG#m
 I´m only sixteen,  I feel a hundred years old

 AA
 My foster daddy went, and took my inocence away

 B5
 the streets life ain´t much better, but at least I get a paid

Pre-chorus:

 C#m
 oh, tuesday It just call my name

 A
 It can´t get worse than yesterday

 E
 thursday, friday ain´t been kind

 G#mA
 but somehow I survive 

Strum a few times B5

Chorus:

 E
 hey men, I´am alive

 A
 I´am taking each day and night at a time

 E
 Yeah I´m down, but i know I´ll get by

strum a few times B5

 A
 Hey men

 B5
 Gotta live my life

 E
 like I ain´t got nothing but this role of a dice

 C#m
 I´m feeling like a monday

 Bm
 but someday

 A
 I´ll be saturday night

---Riff 1---


 E
 now, I can´t tell my name or tell you where I am

 G#m
 I wanna blow myself away, don´t know if I can

 A
 I wish that I could be in some other time and place

 E
 With someone else´s soul,

 B5
 someone else´s face

---Pre Chorus---
---Chorus---


now the riff 1 again with a little touch

e----------------------------------------------------------------------------|
B----------------------------------------------------------------------------|
G----------------------------------------------------------------------------|
D----------------------------------------------------------------------------|
A--7-----6-----4-----2-----0-0--------0h4-7v---------------------------------|
E----0-0---0-0---0-0---0-0-----4---/5----------------------------------------|
---Solo Chords---


 EA
Bridge:

 EA
 saturday night, here we go

 E
 Someday I´ll be saturday night

 A
 I´ll be back on my feets I´ll be doing allright

 E
 It might not be tomorrow, baby that´s ok

 A
 I´m going down, gonna find the way

--- Chorus ---


 C#m
 I´m feeling like a monday

 Bm
 but someday I´ll be saturday night

---Switch from E to A and from A to E---


 E
 ohohohoh Saturday

 A
 niiiiiiiiiiiiiiight

 E
 oh yeah,

 A
 allright

 E
 Saturday niiiiight

 AEAE
Intro Chords: Verses Chords:

E A D G B e E A D G B e
 E: 0-1-2-2-0-0                E: 0-1-2-2-0-0-|
 A: 0-0-2-2-2-0              G#m: 4-6-6-4-4-4-|
B5: 0-2-4-4-0-0                A: 0-0-2-2-2-0-|
                              B5: 0-2-4-4-0-0-|


Pre Chorus chords: Chorus Chords:

E A D G B e E A D G B e
C#m: 4-4-6-6-5-4             E: 0-1-2-2-0-0-|
  A: 0-0-2-2-2-0             A: 0-0-2-2-2-0-|
  E: 0-1-2-2-0-0            B5: 0-2-4-4-0-0-|
G#m: 4-6-6-4-4-4           C#m: 4-4-6-6-5-4-|
 B5: 0-2-4-4-0-0            Bm: 2-2-4-4-3-2-|


Solo and bridge chords:
E A D G B e
 E: 0-1-2-2-0-0-|
 A: 0-0-2-2-2-0-|


Well, i think you got enough to entertain yourself
congtats, comments are welcome at maulhardtc@hotmail.com

Tintin
THE END


A B5 Bm C#m E G#m
variations - click chord images
Transpose chords:
Tuning:
Cool service:
View: Size:
A  A  A
Rating:
Layout:
  • Currently 2.8/5 Stars.
  • 1
  • 2
  • 3
  • 4
  • 5
 
Accuracy:
  • Currently 2/5 Stars.
  • 1
  • 2
  • 3
  • 4
  • 5
 
click stars to rate
Chordie recommends:
Learn how to play guitar at JamPlay.com
Songbook:
Login to add this song to your songbook
Support the artist
Preview/buy this song
MSN Music
Why this non-profit ad?

 
login to add comments/video/corrections