"yes"; ?> Loner by Neil Young - guitar chords, guitar tabs and lyrics - chordie

Loner

Neil Young

 DADGBDDADGBDDADGBD
Dm7 xx0000101010 G7 550033 D7sus4 x00010
G/D xx0000121212 Gm7 355333
C/D xx0555 Am7 577555
D xx0777 D x00230

INTRO:

 Dm7G/DC/DDCsus2DCsus2D
~ d d u d d d u d d d d u d d d u d d d d u d d d u d d
	D|-10---12---5---7-(7)--|---0-0-0-0--0-0-0-0-0-|-0-0-0-0--0-0-0-0-0-|-0-0-0-0--0-0-0-0-0-|
	B|-10---12---5---7-(7)--|---1-1-1-1--3-3-3-3-3-|-1-1-1-1--3-3-3-3-3-|-1-1-1-1--3-3-3-3-3-|
	G|-10---12---5---7-(7)--|---0-0-0-0--2-2-2-2-2-|-0-0-0-0--2-2-2-2-2-|-0-0-0-0--2-2-2-2-2-|
	D|----------------------|---2-2-2-2--0-0-0-0-0-|-2-2-2-2--0-0-0-0-0-|-2-2-2-2--0-0-0-0-0-|
	A|----------------------|---3-3-3-3------------|-3-3-3-3------------|-3-3-3-3------------|
	D|----------------------|----------------------|--------------------|--------------------|


 Dm7G/DC/DDCsus2DCsus2DCsus2D
~ d d d d d d d d d d d d d d d d d d d d d
	D|-10---12---5---7-(7)--|---0-0-0-0--0-0-0-----|---0-0-0-0--0-0-0---|---0-0-0-0--0-0-0---|
	B|-10---12---5---7-(7)--|---1-1-0-3--3-3-3-----|---1-1-0-3--3-3-3---|---1-1-0-3--3-3-3---|
	G|-10---12---5---7-(7)--|---0-0-0-0--2-2-2-----|---0-0-0-2--2-2-2---|---0-0-0-2--2-2-2---|
	D|----------------------|---2-2-0-2--0-0-0-----|---2-2-0-0--0-0-0---|---2-2-0-0--0-0-0---|
	A|----------------------|---3-3----------------|---3-3--------------|---3-3--------------|
	D|----------------------|----------------------|--------------------|--------------------|


VERSE:

 DG7

	D|--0---0---3---3---3---3---3---3---3--|--3--3--3--3--3--3--3--3--3---|
	B|--3---0---3---3---3---3---3---3---3--|--3--3--3--3--3--3--3--3--3---|
	G|--2---0---0---0---0---0---0---0---0--|--0--0--0--0--0--0--0--0--0---|
	D|--0---0---0---0---0---0---0---0---0--|--0--0--0--0--0--0--0--0--0---|
	A|----------5---5---5---5---5---5---5--|--5--5--5--5--5--5--5--5--5---|
	D|----------5---5---5---5---5---5---5--|--5--5--5--5--5--5--5--5--5---|


I He's a perfect stranger, Like a cross of himself and a
He's a feeling arranger, And a changer of the ways he
He's the unforseen danger The keeper of the key to the

II If you see him in the subway, He'll be down at the end of the
Watching you move until he knows he knows who you
When you get off at your station alone, He'll know that you

III There was a woman he knew About a year or so a -
She had something that he needed And he pleaded with her not
On the day that she left, He died - but it did not

 DD7sus4D
 dddudddd
	D|-----0-0---0-0-0-0---0---0--|
	B|-----3-3---3-3-3-1---0---3--|
	G|-----2-2---2-2-2-0---0---2--|
	D|-----0-0---0-0-0-0---0---0--|
	A|--0-------------------------|
	D|----------------------------|


I Fox
Talks
Locks

II car.
are.
are.

III go.
go.
show.

CHORUS:

 Gm7Am7
	D|--3-x-3---3----3------5---7-5-7--|
	B|--3-x-3---3----3------5---0-0-0--|
	G|--3-x-3---3----3------5---0-0-0--|
	D|--5-x-5---5----5------7----------|
	A|--5-x-5---5----5------7----------|
	D|--3-x-3---3----3------5----------|


Know when you see him,
Nothing can free him.

 Gm7Am7D
	D|--3-x-3----3----5--------------0-0---|
	B|--3-x-3----3----5--------------3-3---|
	G|--3-x-3----3----5--------------2-2---|
	D|--5-x-5----5----7--------------0-0---|
	A|--5-x-5----5----7--------------------|
	D|--3-x-3----3----5--------------------|


Step aside, open wi____de, It's the lo___________ner.

Eventual Riff after chorus:

	D|------------------------------------------|
	B|------------------------------------------|
	G|---5-7------5-7----------5-7------5-7-----|
	D|-------7--------7-5-3--------7--------7-5-|
	A|------------------------------------------|
	E|------------------------------------------|


***************************************************************************
More Tabs At: http://members.fortunecity.com/dmedm/gitaar/guitar.htm
***************************************************************************


A Am7 B C/D Csus2 D D7sus4 Dm7 G G/D G7 Gm7
variations - click chord images
Transpose chords:
Tuning:
Cool service:
View: Size:
A  A  A
Rating:
Layout:
  • Currently 2.2/5 Stars.
  • 1
  • 2
  • 3
  • 4
  • 5
 
Accuracy:
  • Currently 2.4/5 Stars.
  • 1
  • 2
  • 3
  • 4
  • 5
 
click stars to rate
Chordie recommends:
Learn to play this song & others via video guitar lessons at JamPlay.com
Songbook:
Login to add this song to your songbook
Support the artist
Preview/buy this song
MSN Music
Why this non-profit ad?

 
login to add comments/video/corrections

All1Song (report video to admin):
Solo acoustic version with improvised intro and interludes.
ERROR: If you can see this, then YouTube is down or you don't have Flash installed.