Guitar Tabs, Chords and Lyrics


Waiting On You   Weezer



-------------------------------------------------------------------------------
			     SONG NAME - waiting on you
-------------------------------------------------------------------------------
Tabbed by:rather_dashing
Email:ewiniger@gmail.com

Tuning:standard
intro and verse
guitar 1
e|---------------------------------------------------------------------------|
B|---------------------------------------------------------------------------|
G|---------------------------------------------------------------------------|
D|---------------------------------------------------------------------------|
A|------9--8--6--4-6--8--9---------------------------------------------------|
E|------7--6--4--2-4--6--7---------------------------------------------------|
guitar 2
e|--------------------------------------------------------------------------------------|
B|--7---------11-------9--7----9---7---6---4--------------------------------------------|
G|--------------------------------------------------------------------------------------|
D|--------------------------------------------------------------------------------------|
A|--------------------------------------------------------------------------------------|
E|--------------------------------------------------------------------------------------|
chorus
e|------------------------------------------------------------------------------------|
B|------------------------------------------------------------------------------------|
G|------------------------------------------------------------------------------------|
D|----------6-------------------------------------------------------------------------|
A|-------9--4--4------8888------------------------------------------------------------|


Important: The song above is NOT stored on the Chordie server. The original song is hosted at www.guitaretab.com. Chordie works as a search engine and provides on-the-fly formatting. Chordie does not index songs against artists/composers will. To remove this song please click here.

This song is displayed as text-only. Transposing and tuning is only available for chordpro-songs.

Login - add to songbook

Rating click stars to rate

Layout
Accuracy

SHARE PAGE  




You need to log in to post comments