Guitar Tabs, Chords and Lyrics


Raise Your Hands    Bon Jovi



                                RAISE YOUR HANDS
                             As recorded by Bon Jovi
                     (From the 1986 Album SLIPPERY WHEN WET)

Words and Music by Jon Bon Jovi & Richie Sambora
Transcribed by Per Erik Jansen [aorguru@enitel.no]

   Intro
   4/4
    Gtr I
    PM----|    PM----|    PM----|      PM----|    PM----|
                                                                  3x
||--------------------------------|-------------------------------||
||o-------------------------------|------------------------------o||
||--------------------------------|-------------------------------||
||----------7----------7----------|-7----------5----------5tr4----||
||o-0-0-0-0----0-0-0-0----0-0-0-0-|----0-0-0-0----0-0-0-0--------o||
||--------------------------------|-------------------------------||
|--------------------------------------------------------|
|--------------------------------------------------------|
|--------------------------------------------|
|-----------------------------------------------|
|--------------------------------------------------------------|
|--------------------------------------------------------------|
   \2
                           PM----|    PM----|    PM----|
|----------------------||--------------------------------|
|----------------------||o-------------------------------|
|---------0----2----||--------------------------------|
|------------0----0----||----------7----------7----------|
|----------------------||o-0-0-0-0----0-0-0-0----0-0-0-0-|
|----------------------||--------------------------------|
     PM----|    PM----|
|-----------------------------|
|-----------------------------|
|-----------------------------|
|-7----------5----------5tr4--|
|----0-0-0-0----0-0-0-0-------|
|-----------------------------|
    PM--|    PM----|    PM----|   ~
|-------------------------------|-------------------||
|-------------------------------|------------------o||
|-------------------------------|---------0----2----||
|---------7----------7----------|-7-------0----0----||
|-0-0-0-0----0-0-0-0----0-0-0-0-|------------------o||
|-------------------------------|-------------------||
   Verse
    PM----|    PM----|    PM----|      PM----|    PM----|
||--------------------------------|-------------------------------|
||o-------------------------------|-------------------------------|
||--------------------------------|-------------------------------|
||----------7----------7----------|-7----------5----------5tr4----|
||o-0-0-0-0----0-0-0-0----0-0-0-0-|----0-0-0-0----0-0-0-0---------|
||--------------------------------|-------------------------------|
    PM--|    PM----|    PM----|   ~
|-------------------------------|---------------|
|-------------------------------|---------------|
|-------------------------------|-------0---2---|
|---------7----------7----------|-7-----0---0---|
|-0-0-0-0----0-0-0-0----0-0-0-0-|---------------|
|-------------------------------|---------------|
  PM----|    PM----|    PM----|      PM----|    PM----|
|-------------------------------|-------------------------------|
|-------------------------------|-------------------------------|
|-------------------------------|-------------------------------|
|---------7----------7----------|-7----------5----------5tr4----|
|-0-0-0-0----0-0-0-0----0-0-0-0-|----0-0-0-0----0-0-0-0---------|
|-------------------------------|-------------------------------|
    PM--|    PM----|    PM----|   ~
|-------------------------------|-----------------||
|-------------------------------|-----------------||
|-------------------------------|--------0---2----||
|---------7----------7----------|-7------0---0----||
|-0-0-0-0----0-0-0-0----0-0-0-0-|-----------------||
|-------------------------------|-----------------||
  PM----|    PM----|    PM----|      PM----|    PM----|
|-------------------------------|-------------------------------|
|-------------------------------|-------------------------------|
|---------7----------7----------|-7----------5----------5tr4----|
|-0-0-0-0----0-0-0-0----0-0-0-0-|----0-0-0-0----0-0-0-0---------|
|-------------------------------|-------------------------------|
|-------------------------------|-------------------------------|
                                  \2
    PM--|    PM----|    PM----|
|-------------------------------|------------------|
|-------------------------------|------------------|
|---------7----------7----------|-7-------0---2----|
|-0-0-0-0----0-0-0-0----0-0-0-0-|---------0---0----|
|-------------------------------|------------------|
|-------------------------------|------------------|
  PM----|    PM----|    PM----|      PM----|    PM----|
|-------------------------------|-------------------------------|
|-------------------------------|-------------------------------|
|-------------------------------|-------------------------------|
|---------7----------7----------|-7----------5----------5tr4----|
|-0-0-0-0----0-0-0-0----0-0-0-0-|----0-0-0-0----0-0-0-0---------|
|-------------------------------|-------------------------------|
    PM--|    PM----|    PM----|   ~
|-------------------------------|--------------||
|-------------------------------|--------------||
|-------------------------------|--------------||
|---------7----------7----------|-7------x\----||
|-0-0-0-0----0-0-0-0----0-0-0-0-|--------------||
|-------------------------------|--------------||
 Pre-Chorus
  PM-|     PM   PM----|       PM   PM-|     PM
|------------------------|------------------------|
|------------------------|---------------------3--|
|-------4----------------|-4-------------4--------|
|------------------------|------------------------|
|------------------------|------------------------|
|-3--3-----2----2--3--3--|----2----2--3-----2-----|
  PM----|    PM----|    PM----|      PM----|     ~~~
|-------------------------------|----------------------|
|-------------------------------|----------------------|
|-------------------------------|----------------------|
|---------7----------7----------|-7----------7--(7)----|
|-0-0-0-0----0-0-0-0----0-0-0-0-|----0-0-0-0-----------|
|-------------------------------|----------------------|
  PM-|     PM   PM----|       PM   PM-|     PM
|------------------------|------------------------|
|------------------------|---------------------3--|
|-------4----------------|-4-------------4--------|
|------------------------|------------------------|
|------------------------|------------------------|
|-3--3-----2----2--3--3--|----2----2--3-----2-----|
  PM----|    PM----|    PM----|
|-------------------------------|---------3---2---||
|-------------------------------|---------3---3---||
|-------------------------------|---------0---2---||
|---------7----------7----------|-2-------0---0---||
|-0-0-0-0----0-0-0-0----0-0-0-0-|-0---------------||
|-------------------------------|-----------------||
 Chorus
  $
  PM----|    PM----|    PM----|      PM----|    PM----|
|-------------------------------|-------------------------------|
|-------------------------------|-------------------------------|
|-------------------------------|-------------------------------|
|---------7----------7----------|-7----------5----------5tr4----|
|-0-0-0-0----0-0-0-0----0-0-0-0-|----0-0-0-0----0-0-0-0---------|
|-------------------------------|-------------------------------|
    PM--|    PM----|    PM----|   ~
|-------------------------------|-----------------|
|-------------------------------|---------0---2---|
|-------------------------------|---------0---2---|
|---------7----------7----------|-7-------0---2---|
|-0-0-0-0----0-0-0-0----0-0-0-0-|-----------------|
|-------------------------------|-----------------|
  PM----|    PM----|    PM----|      PM----|    PM----|
|-------------------------------|-------------------------------|
|-------------------------------|-------------------------------|
|-------------------------------|-------------------------------|
|---------7----------7----------|-7----------5----------5tr4----|
|-0-0-0-0----0-0-0-0----0-0-0-0-|----0-0-0-0----0-0-0-0---------|
|-------------------------------|-------------------------------|
    PM--|    PM----|    PM----|   ~
|-------------------------------|---------------|
|-------------------------------|---------------|
|-------------------------------|---------------|
|---------7----------7----------|-7-------x\----|
|-0-0-0-0----0-0-0-0----0-0-0-0-|---------------|
|-------------------------------|---------------|
|--------------------|---------------------|
|--------------------|---------------------|
|-0------------------|-2---------0----2----|
|-0------------------|-0---------0----0----|
|--------------------|---------------------|
|--------------------|---------------------|
                                 1.
                         To Coda
  PM----|    PM----|    PM----|      PM----|    PM----|
|-------------------------------|-------------------------------|
|-------------------------------|-------------------------------|
|-------------------------------|-------------------------------|
|---------7----------7----------|-7----------5----------5tr4----|
|-0-0-0-0----0-0-0-0----0-0-0-0-|----0-0-0-0----0-0-0-0---------|
|-------------------------------|-------------------------------|
    PM--|    PM----|    PM----|   ~
|-------------------------------|----------3----2-----||
|-------------------------------|----------3----3----o||
|-------------------------------|----------0----2-----||
|---------7----------7----------|-7--------0----0-----||
|-0-0-0-0----0-0-0-0----0-0-0-0-|--------------------o||
|-------------------------------|---------------------||
  2.
      PM----|    PM----|
|------------------------------|----------|-------------|
|------------------------------|----------|-------------|
|---------------------------2--|-0--------|-2-----0--2--|
|--7----------5----------4-----|-0--------|-0-----0--0--|
|-----0-0-0-0----0-0-0-0-------|----------|-------------|
|------------------------------|----------|-------------|
  PM----|    PM----|    PM----|      PM----|    PM----|
|-------------------------------|-------------------------------|
|-------------------------------|-------------------------------|
|-------------------------------|-------------------------------|
|---------7----------7----------|-7----------5----------5tr4----|
|-0-0-0-0----0-0-0-0----0-0-0-0-|----0-0-0-0----0-0-0-0---------|
|-------------------------------|-------------------------------|
                                         \1
    PM--|    PM----|    PM----|
|-------------------------------|-19b21-19-----||
|-------------------------------|-20b22-20-----||
|-------------------------------|--------------||
|---------7----------7----------|--------------||
|-0-0-0-0----0-0-0-0----0-0-0-0-|--------------||
|-------------------------------|--------------||
 Guitar Solo
                                       \2
             ~
|---------------------|--------------------------|
|---------------------|--------------------------|
|------------2--------|--------------------------|
|-------4-------------|-5--0-5-0-5-5-0-5---------|
|----4----------------|--------------------------|
|-2-------------------|--------------------------|
                                                        ~
|-------------------------------|----------------------------|
|-------------------------------|----------------------------|
|------------------7----5-------|------------------7----5----|
|-0-7--0-5-0-4-0-0----0---0-7-0-|-0-7--0-5-0-4-0-0----0------|
|-------------------------------|----------------------------|
|-------------------------------|----------------------------|
                                                    \2
             ~
|---------------------|-------------------------------------|
|---------------------|----------------------------------|
|------------2--------|------------------()--------|
|-------4-------------|----------------------------------------|
|----4----------------|----------------------------------------|
|-2-------------------|----------------------------------------|
|-------------------------------------|----------------------------------|
|-------------------------------------|----------------------------------|
|---------------------19--0-18-0------|---------------------19--0-18\----|
|-0-19--0-17-0-16-0-0------------19-0-|-0-19--0-17-0-16-0-0--------------|
|-------------------------------------|----------------------------------|
|-------------------------------------|----------------------------------|
|----------------------------|-------------------------|
|----------------------------|-------------------------|
|-----2--2------2--2------2--|-2------2--2--(2)--------|
|-2h4-------2h4-------2h4----|----2h4------------------|
|----------------------------|-------------------------|
|----------------------------|-------------------------|
|-20b22==(20)r(20)-17-----------------------------------------------------|-------------------------------|
|---------------------20-17-20b22==(20)r(20)-17---------------------------|-------------------------------|
|-----------------------------------------------19-17-19b21==(19)r(19)-17-|-------------------------------|
|-------------------------------------------------------------------------|-19-17-19--17------------------|
|-------------------------------------------------------------------------|--------------19-17------------|
|-------------------------------------------------------------------------|--------------------20-(20)----|
|-----------------------------|-------------------------------|
|-----------------------------|-------------10------15--------|
|------------------2-4S5S6----|------9-0-11----0-16-----------|
|------------2h3h4------------|-0-11--------------------------|
|-----0--2h4------------------|-------------------------------|
|-0h2-------------------------|-------------------------------|
|--------------------|-()----||
|---------()---------|----------||
|--------------------------|----------||
|--------------------------|----------||
|--------------------------|----------||
|--------------------------|----------||
   Interlude
    PM----|    PM----|    PM----|      PM----|    PM----|
                                                                   3x
||--------------------------------|--------------------------------||
||o-------------------------------|-------------------------------o||
||--------------------------------|--------------------------------||
||----------7----------7----------|-7----------5----------5tr4-----||
||o-0-0-0-0----0-0-0-0----0-0-0-0-|----0-0-0-0----0-0-0-0---------o||
||--------------------------------|--------------------------------||
                                                                    D.S. al Coda
                                                                   \2
|---------------------------------------------------------|----------------||
|---------------------------------------------------------|----------------||
|---------------------------------------------|-------0--2--||
|------------------------------------------------|----------0--0--||
|---------------------------------------------------------------|----------------||
|---------------------------------------------------------------|----------------||
                     Out-Chorus
  &
  ~                    PM----|    PM----|    PM----|
|-----------------||---------------------------------|
|-----------------||o--------------------------------|
|--------0---2----||---------------------------------|
|-7------0---0----||-----------7----------7----------|
|-----------------||o--0-0-0-0----0-0-0-0----0-0-0-0-|
|-----------------||---------------------------------|
     PM----|    PM----|           PM----|    PM----|    PM----|   ~
                                                                                  4x
|-------------------------------|-------------------------------|-----------------||
|-------------------------------|-------------------------------|----------------o||
|-------------------------------|-------------------------------|--------0---2----||
|-7----------5----------5tr4----|---------7----------7----------|-7------0---0----||
|----0-0-0-0----0-0-0-0---------|-0-0-0-0----0-0-0-0----0-0-0-0-|----------------o||


Important: The song above is NOT stored on the Chordie server. The original song is hosted at www.xguitar.com. Chordie works as a search engine and provides on-the-fly formatting. Chordie does not index songs against artists'/composers' will. To remove this song please click here.

This song is displayed as text-only. Transposing and tuning is only available for chordpro-songs.

Login - add to songbook

Rating click stars to rate

Layout
Accuracy

SHARE PAGE  




You need to log in to post comments