Chordie logo

Six Degrees of Inner Turbulence: VI. Solitary Shell 5:48   Dream Theater

      7 9[Badd4] 9 8 0 0          5 7[Aadd9] 7 6 0 0          0 2 2[E] 1 0 0          2 4 [F#m]4 2 2 2

Gtr I (E A D G B E) - 'Untitled'
Gtr II (E A D G B E) - 'Untitled'
Gtr III (E A D G B E) - 'Untitled'
Gtr IV (E A D G B E) - 'Untitled'
Gtr V (E A D G B E) - 'Untitled'

Intro
Moderately Q=104
   [3/4] Gtrs I, II       [4/4]
E S S E E S S E E S S E E S S E E S S
||--0-0-0-0-0-0-0-0-|-0-0-0-0-0-0-0-0-------|
||o-0-0-0-0-0-0-0-0-|-0-0-0-0-0-0-0-0-------|
||--6-6-6-6-4-4-4-4-|-8-8-8-8-4-4-4-4-------|
||------------------|-----------------6-----|
||o-4-4-4-4-2-2-2-2-|-6-6-6-6-2-2-2-2---x-x-|
||------------------|-----------------4-x-x-|



[3/4] E S S E E S S E  [4/4] E S S E E S S E E S S  4x
|-0-0-0-0-0-0-0-0-|-0-0-0-0-0-0-0-0--------||
|-0-0-0-0-0-0-0-0-|-0-0-0-0-0-0-0-0-------o||
|-6-6-6-6-4-4-4-4-|-9-9-9-9-8-8-8-8-4------||
|-----------------|------------------------||
|-4-4-4-4-2-2-2-2-|-7-7-7-7-6-6-6-6-2-x-x-o||
|-----------------|-------------------x-x--||



Verse I
   [3/4] E S S E E S S E  [4/4] E. S S S S S S S S S E S S
||--0-0-0-0-0-0-0-0-|-4--4-4-4-4-4-4-4-4-4-4-----|
||o-0-0-0-0-0-0-0-0-|-4--4-4-4-4-4-4-4-4-4-4-----|
||--6-6-6-6-4-4-4-4-|-4--4-4-4-4-4-4-4-4-4-4-----|
||------------------|-6--6-6-6-6-6-6-6-6-6-6-----|
||o-4-4-4-4-2-2-2-2-|-6--6-6-6-6-6-6-6-6-6-6-x-x-|
||------------------|-4--4-4-4-4-4-4-4-4-4-4-x-x-|



[3/4] E S S E E S S E  [4/4] E. S S S S S S S S S E S S
|-0-0-0-0-0-0-0-0-|-0--0-0-0-0-0-0-0-0-0-0------||
|-0-0-0-0-0-0-0-0-|-0--0-0-0-0-0-0-0-0-0-0-----o||
|-6-6-6-6-4-4-4-4-|-1--1-1-1-1-1-1-1-1-1-1------||
|-----------------|-2--2-2-2-2-2-2-2-2-2-2------||
|-4-4-4-4-2-2-2-2-|-2--2-2-2-2-2-2-2-2-2-2-x-x-o||
|-----------------|-0--0-0-0-0-0-0-0-0-0-0-x-x--||



Verses II & III
$
[3/4] E S S E E S S E  [4/4] E. S S S S S S S S S E S S
|-0-0-0-0-0-0-0-0-|-4--4-4-4-4-4-4-4-4-4-4-----|
|-0-0-0-0-0-0-0-0-|-4--4-4-4-4-4-4-4-4-4-4-----|
|-6-6-6-6-4-4-4-4-|-4--4-4-4-4-4-4-4-4-4-4-----|
|-----------------|-6--6-6-6-6-6-6-6-6-6-6-----|
|-4-4-4-4-2-2-2-2-|-6--6-6-6-6-6-6-6-6-6-6-x-x-|
|-----------------|-4--4-4-4-4-4-4-4-4-4-4-x-x-|



[3/4] E S S E E S S E  [4/4] E. S S S S S S S S S E S S
|-0-0-0-0-0-0-0-0-|-0--0-0-0-0-0-0-0-0-0-0-----|
|-0-0-0-0-0-0-0-0-|-0--0-0-0-0-0-0-0-0-0-0-----|
|-6-6-6-6-4-4-4-4-|-1--1-1-1-1-1-1-1-1-1-1-----|
|-----------------|-2--2-2-2-2-2-2-2-2-2-2-----|
|-4-4-4-4-2-2-2-2-|-2--2-2-2-2-2-2-2-2-2-2-x-x-|
|-----------------|-0--0-0-0-0-0-0-0-0-0-0-x-x-|



[3/4] E S S E E S S E  [4/4] E. S S S S S S S S S E S S
|-0-0-0-0-0-0-0-0-|-4--4-4-4-4-4-4-4-4-4-4-----|
|-0-0-0-0-0-0-0-0-|-4--4-4-4-4-4-4-4-4-4-4-----|
|-6-6-6-6-4-4-4-4-|-4--4-4-4-4-4-4-4-4-4-4-----|
|-----------------|-6--6-6-6-6-6-6-6-6-6-6-----|
|-4-4-4-4-2-2-2-2-|-6--6-6-6-6-6-6-6-6-6-6-x-x-|
|-----------------|-4--4-4-4-4-4-4-4-4-4-4-x-x-|



To Coda
[3/4] E S S E E S S E  [4/4] E. S S S S S S S S S E S S
|-0-0-0-0-0-0-0-0-|-0--0-0-0-0-0-0-0-0-0-0-----||
|-0-0-0-0-0-0-0-0-|-0--0-0-0-0-0-0-0-0-0-0-----||
|-6-6-6-6-4-4-4-4-|-1--1-1-1-1-1-1-1-1-1-1-----||
|-----------------|-2--2-2-2-2-2-2-2-2-2-2-----||
|-4-4-4-4-2-2-2-2-|-2--2-2-2-2-2-2-2-2-2-2-x-x-||
|-----------------|-0--0-0-0-0-0-0-0-0-0-0-x-x-||



Pre-Chorus I
    [Badd4]Gtrs I, II                    [Aadd9]              [E]
E S S S S S S S S S S E S S E S S S S S S S S S S E S S
| | | | | | | | | | | | | | | | | | | | | | | | | | | |
/ / / / / / / / / / / / / x / / / / / / / / / / / / / x

W W 3x
||------------------------------|-------------------------------||
||o-----------------------------|------------------------------o||
||------------------------------|-------------------------------||
||------------------------------|-------------------------------||
||o-----------------------------|------------------------------o||
||------------------------------|-------------------------------||



  [F#m]E S S S S S S S S S S E S S   [Aadd9]E S S S S S S [Badd4]S S S S E S S
| | | | | | | | | | | | | | | | | | | | | | | | | | | |
/ / / / / / / / / / / / / x / / / / / / / / / / / / / x

W W
|-----------------------------|-----------------------------||
|-----------------------------|-----------------------------||
|-----------------------------|-----------------------------||
|-----------------------------|-----------------------------||
|-----------------------------|-----------------------------||
|-----------------------------|-----------------------------||



Chorus
$$
  [E] E  S +S S S E +S  S  S S E  S S     E   S S S S E +S  S  S S E  S S
| | | | | | | | | | | | | | | | | | | | | | | | | |
/ / / / / / / / / / / / x / / / / / / / / / / / / x

Gtr III
Q. E +E Q E +E Q E +E Q E
|-12--------------------------12---|-(12)------------------------------|
|-12-----------9-(9)---10----------|------10-------9-(9)---10-----12---|
|--9-------------------------------|-----------------------------------|
|----------------------------------|-----------------------------------|
|----------------------------------|-----------------------------------|
|----------------------------------|-----------------------------------|

|
| Gtr IV
| Q. E +Q. S S Q. E +Q Q
|----------------------------------|-----------------------------------|
|----------------------------------|-----------------------------------|
|--9-----------9-(9)-----------9-9-|---9-----------9-(9)--------9------|
|--9-----------9-(9)-----------9-9-|---9-----------9-(9)--------9------|
|--7-----------7-(7)-----------7-7-|---7-----------7-(7)--------7------|
|----------------------------------|-----------------------------------|



  [Badd4]  E   S S S S  E  +S  S  S S E  S S     E   S S S S  E  +S  S  S S E S S
| | | | | | | | | | | | | | | | | | | | | | | | | |
/ / / / / / / / / / / / x / / / / / / / / / / / / x

+E Q E +E Q E +E Q E +E Q E
|---------------11-(11)---------------|---------------11-(11)----------------|
|-(12)--------------------12----------|------12-----------------12-----------|
|------11------------------------11---|-(11)---------------------------------|
|-------------------------------------|--------------------------------------|
|-------------------------------------|--------------------------------------|
|-------------------------------------|--------------------------------------|

|
| Q. E +Q. S S Q. E +Q Q
|-------------------------------------|--------------------------------------|
|-------------------------------------|--------------------------------------|
|---4------------4--(4)-----------4-4-|---4------------4--(4)--------4-------|
|---4------------4--(4)-----------4-4-|---4------------4--(4)--------4-------|
|---2------------2--(2)-----------2-2-|---2------------2--(2)--------2-------|
|-------------------------------------|--------------------------------------|



  [Aadd9]E   S +S S S  E  +S  S  S S E S S    E   S S S S  E  +S  S  S S E  S S
| | | | | | | | | | | | | | | | | | | | | | | | | |
/ / / / / / / / / / / / x / / / / / / / / / / / / x

E Q E +E Q E +E Q E +E Q E
|--------------12-(12)--------------|-----12-------12-(12)---12----------|
|----10--------10-(10)---10---------|-----10--------9--(9)---10-----12---|
|-9-----------------------------9---|-(9)--------------------------------|
|-----------------------------------|------------------------------------|
|-----------------------------------|------------------------------------|
|-----------------------------------|------------------------------------|

|
| Q. E +Q. S S Q. E +Q Q
|-----------------------------------|------------------------------------|
|-----------------------------------|------------------------------------|
|-2-------------2--(2)----------2-2-|--2------------2--(2)--------2------|
|-2-------------2--(2)----------2-2-|--2------------2--(2)--------2------|
|-0-------------0--(0)----------0-0-|--0------------0--(0)--------0------|
|-----------------------------------|------------------------------------|



  [E]  E   S S S S  E  +S  S  S S E  S S   [Badd4]  E   S S S S  E  +S  S  S  S  E  S  S
| | | | | | | | | | | | | | | | | | | | | | | | | |
/ / / / / / / / / / / / x / / / / / / / / / / / / x

+E Q E +E Q E +E Q E +E S S E S S
|------12-------12-(12)---12----------|---------------12-(12)------------12-12---|
|-(12)-12-------10-(10)----9----------|------12-----------------12-12-12-12-12---|
|--------------------------------11---|-(11)--------------------11-11-11---------|
|-------------------------------------|------------------------------------------|
|-------------------------------------|------------------------------------------|
|-------------------------------------|------------------------------------------|

|
| Q. E +Q. S S Q. E +Q Q
|-------------------------------------|------------------------------------------|
|---0------------0--(0)---------------|------------------------------------------|
|---1------------1--(1)-----------4-4-|---4------------4--(4)----------4---------|
|---2------------2--(2)-----------4-4-|---4------------4--(4)----------4---------|
|---2------------2--(2)---------------|---2------------2--(2)----------2---------|
|-------------------------------------|------------------------------------------|



  [E] E  S +S S S E +S  S  S S E  S S     E   S S S S E +S  S  S S E  S S
| | | | | | | | | | | | | | | | | | | | | | | | | |
/ / / / / / / / / / / / x / / / / / / / / / / / / x

Q. E +E Q E +E Q E +E Q E
|-12--------------------------12---|-(12)------------------------------|
|-12-----------9-(9)---10----------|------10-------9-(9)---10-----12---|
|--9-------------------------------|-----------------------------------|
|----------------------------------|-----------------------------------|
|----------------------------------|-----------------------------------|
|----------------------------------|-----------------------------------|

|
| Q. E +Q. S S Q. E +Q Q
|----------------------------------|-----------------------------------|
|----------------------------------|-----------------------------------|
|--9-----------9-(9)-----------9-9-|---9-----------9-(9)--------9------|
|--9-----------9-(9)-----------9-9-|---9-----------9-(9)--------9------|
|--7-----------7-(7)-----------7-7-|---7-----------7-(7)--------7------|
|----------------------------------|-----------------------------------|



  [Badd4]  E   S S S S  E  +S  S  S S E  S S     E   S S S S  E  +S  S  S S E S S
| | | | | | | | | | | | | | | | | | | | | | | | | |
/ / / / / / / / / / / / x / / / / / / / / / / / / x

+E Q E +E Q E +E Q E +E Q E
|---------------11-(11)---------------|---------------11-(11)----------------|
|-(12)--------------------12----------|------12-----------------12-----------|
|------11------------------------11---|-(11)---------------------------------|
|-------------------------------------|--------------------------------------|
|-------------------------------------|--------------------------------------|
|-------------------------------------|--------------------------------------|

|
| Q. E +Q. S S Q. E +Q Q
|-------------------------------------|--------------------------------------|
|-------------------------------------|--------------------------------------|
|---4------------4--(4)-----------4-4-|---4------------4--(4)--------4-------|
|---4------------4--(4)-----------4-4-|---4------------4--(4)--------4-------|
|---2------------2--(2)-----------2-2-|---2------------2--(2)--------2-------|
|-------------------------------------|--------------------------------------|



  [F#m]  E   S +S S S  E  +S  S  S S  E S S   [Aadd9]E   S S S S  E  +S  S  S S E  S  S
| | | | | | | | | | | | | | | | | | | | | | | | | |
/ / / / / / / / / / / / x / / / / / / / / / / / / x

E Q E +E Q E E Q E +E E E S S
|-----------------9--(9)---------------|-------------12-(12)----------------|
|------10------------------10----------|----10-----------------10-----12-12-|
|--11------------------------------9---|-9--------------------------9--9--9-|
|--------------------------------------|------------------------------------|
|--------------------------------------|------------------------------------|
|--------------------------------------|------------------------------------|

|
| Q. E +Q Q Q. E +Q Q
|--------------------------------------|------------------------------------|
|--------------------------------------|------------------------------------|
|-/11------------11-(11)--------11-----|-2------------2--(2)--------2-------|
|-/11------------11-(11)--------11-----|-2------------2--(2)--------2-------|
|--/9-------------9--(9)---------9-----|-0------------0--(0)--------0-------|
|--------------------------------------|------------------------------------|



To Dbl. Coda
  [E] E  S  S S S  E  +S  S S S E  S S   [Badd4]  E   S S S S [Aadd9] E +S S  S S  E S S
| | | | | | | | | | | | | | | | | | | | | | | | | |
/ / / / / / / / / / / / x / / / / / / / / / / / / x

E. S E E +E Q E +E Q E E E Q
|-----------------------------------|---------------11-----------12-------|
|-12----12-----10-(10)---9----------|------12---------------10------------|
|--9-------9-------------------11---|-(11)--------------9-----------------|
|-----------------------------------|-------------------------------------|
|-----------------------------------|-------------------------------------|
|-----------------------------------|-------------------------------------|

|
| ~~
| Q. E +Q Q Q Q Q Q
|-----------------------------------|-------------------------------------|
|--0------------0--(0)-------0------|-------------------------------------|
|--1------------1--(1)-------1------|---4-------4-------2-----------------|
|--2------------2--(2)-------2------|---4-------4-------2-----------------|
|--2------------2--(2)-------2------|---2-------2-------0-----------------|
|-----------------------------------|-----------------------------5-------|



  [E] W           +W             W            +W
| | | |
W +W +W +W
|-12--------|-(12)--------|-(12)--------|-(12)----|
|-12--------|-(12)--------|-(12)--------|-(12)----|
|--9--------|--(9)--------|--(9)--------|--(9)----|
|-----------|-------------|-------------|---------|
|-----------|-------------|-------------|---------|
|-----------|-------------|-------------|---------|

|
| W +W +W +W
|-----------|-------------|-------------|---------|
|--0--------|--(0)--------|--(0)--------|--(0)----|
|--1--------|--(1)--------|--(1)--------|--(1)----|
|--2--------|--(2)--------|--(2)--------|--(2)----|
|--2--------|--(2)--------|--(2)--------|--(2)----|
|--0--------|--(0)--------|--(0)--------|--(0)----|



   [3/4] Gtrs I, II       [4/4]
E S S E E S S E E S S E E S S E E S S
||--0-0-0-0-0-0-0-0-|-0-0-0-0-0-0-0-0-------|
||o-0-0-0-0-0-0-0-0-|-0-0-0-0-0-0-0-0-------|
||--6-6-6-6-4-4-4-4-|-8-8-8-8-4-4-4-4-------|
||------------------|-----------------6-----|
||o-4-4-4-4-2-2-2-2-|-6-6-6-6-2-2-2-2---x-x-|
||------------------|-----------------4-x-x-|



D.S. al Coda
[3/4] E S S E E S S E  [4/4] E S S E E S S E E S S
|-0-0-0-0-0-0-0-0-|-0-0-0-0-0-0-0-0--------||
|-0-0-0-0-0-0-0-0-|-0-0-0-0-0-0-0-0-------o||
|-6-6-6-6-4-4-4-4-|-9-9-9-9-8-8-8-8-4------||
|-----------------|------------------------||
|-4-4-4-4-2-2-2-2-|-7-7-7-7-6-6-6-6-2-x-x-o||
|-----------------|-------------------x-x--||



Pre-Chorus II
&
    [Badd4]Gtrs I, II
E S S S S S S S S S S E S S
| | | | | | | | | | | | | |
/ / / / / / / / / / / / / x

Gtr III
    PM--------------------------------------

S S S S S S S S S S S S S S S S
||-----------------------------------------|
||o-----12---12---12---12---12---12---12---|
||-----------------------------------------|
||----9----9----9----9----9----9----9----9-|
||o----------------------------------------|
||-----------------------------------------|



  [Aadd9] E    S S  S S  S S [E] S S  S S  E    S S
| | | | | | | | | | | | | |
/ / / / / / / / / / / / / x

 ---------------------------------------|

S S S S S S S S S S S S S S S S 3x
|------------------------------------------||
|-12---12---12---12---10---10---10-9----9-o||
|------------------------------------11----||
|----9----9----9----9----9----9------------||
|-----------------------------------------o||
|------------------------------------------||



  [F#m] E    S  S   S   S  S  S  S   S  S S  E    S S
| | | | | | | | | | | | | |
/ / / / / / / / / / / / / x

S S S S +S S S S S S S S S S E
|------------------------------------------------|
|--------------------------------------------9---|
|-11----9-11-(11)----11-11-11--11-11-9-11-11-----|
|----11-----------11-----------------------------|
|------------------------------------------------|
|------------------------------------------------|

|
| Gtr IV
| E S S S S S S +S S S S S S S S
|--2----2--2---2---2--2--2-(2)--2--2-2--2--2-2-2-|
|--2----2--2---2---2--2--2-(2)--2--2-2--2--2-2-2-|
|------------------------------------------------|
|------------------------------------------------|
|------------------------------------------------|
|------------------------------------------------|



D.S.S. al Dbl. Coda
  [Aadd9] E   S  S  S S  S  S [Badd4]  S   S  S S  E    S  S
| | | | | | | | | | | | | |
/ / / / / / / / / / / / / x

S S S S S S S S +S S S S E S S
|--0-0-0--0--0-0--0--0--(0)--0--0-0--0----0--0--||
|-10---9-12-10---14-12-(12)-16-14---17---19-17--||
|-----------------------------------------------||
|-----------------------------------------------||
|-----------------------------------------------||
|-----------------------------------------------||

|
| S S S S S S S S S S S S S S S S
|-/5-5-5--5--5-5--5--5---7---7--7-7--7-7--7--7--||
|-/5-5-5--5--5-5--5--5---7---7--7-7--7-7--7--7--||
|-----------------------------------------------||
|-----------------------------------------------||
|-----------------------------------------------||
|-----------------------------------------------||



Bridge
&&
  [Badd4]             [Aadd9]                     6[G]/8          5/8
Gtrs I, II
E S S S S E +S S S S E S S W W
| | | | | | | | | | | | |
/ / / / / / / / / / / / x

Gtr IV
+E Q E Q Q Q. +Q. +Q. +Q
|---------------------------------||-3----(3)---|-(3)---(3)--|
|-(7)-12-------12----------10-----||-3----(3)---|-(3)---(3)--|
|------------------9--------------||-4----(4)---|-(4)---(4)--|
|---------------------------------||-5----(5)---|-(5)---(5)--|
|---------------------------------||-5----(5)---|-(5)---(5)--|
|---------------------------------||-3----(3)---|-(3)---(3)--|

|
| Gtr III
| ~~
| H H W W
|---------------------------------||------------|------------|
|---------------------------------||------------|------------|
|--4------------------------------||------------|------------|
|--4------------------------------||------------|------------|
|--2------------------------------||------------|------------|
|------------------5--------------||------------|------------|



6/8 5/8 6/8 5/8
|-3-|
Q. +Q. +Q. E E E Q. +Q. +Q. +Q
|-3----(3)---|-(3)----------|-3----(3)---|-(3)---(3)--|
|-3----(3)---|-(3)----------|-3----(3)---|-(3)---(3)--|
|-4----(4)---|-(4)----------|-4----(4)---|-(4)---(4)--|
|-5----(5)---|-(5)---/5-----|-5----(5)---|-(5)---(5)--|
|-5----(5)---|-(5)------5---|-5----(5)---|-(5)---(5)--|
|-3----(3)---|-(3)--------3-|-3----(3)---|-(3)---(3)--|



6/8          5/8             6[A]/8                      5/8
~~~
Q. +Q. +Q. S S S S E. S +S S E. S +S S E. S +S S S E S
|-3----(3)---|-(3)-----------|------------------------|------------------|
|-3----(3)---|-(3)-----------|------------------------|------------------|
|-4----(4)---|-(4)-----------|------------------------|------------------|
|-5----(5)---|-(5)---5p4-----|------------/7--7-(7)-7-|--------------7---|
|-5----(5)---|-(5)-------5-2-|-0--0-(0)-0-------------|-0--0-(0)-0-x---7-|
|-3----(3)---|-(3)-----------|------------------------|------------------|



6/8 5/8
~~~
E. S +S S E. S +S S E. S +S S S S S S
|------------------------|--------------------|
|------------------------|--------------------|
|------------------------|--------------------|
|------------/7--7-(7)-7-|------------5p4-----|
|-0--0-(0)-0-------------|-0--0-(0)-0-----5-2-|
|------------------------|--------------------|



6/8 5/8
~~~
E. S +S S E. S +S S E. S +S S S E S
|------------------------|-------------------|
|------------------------|-------------------|
|------------------------|-------------------|
|------------/7--7-(7)-7-|--------------7----|
|-0--0-(0)-0-------------|-0--0-(0)-0-x---7--|
|------------------------|-------------------|



6/8 5/8
~~~
E. S +S S E. S +S S E. S +S S e e
|------------------------|------------5-5-|
|------------------------|------------5-5-|
|------------------------|----------------|
|------------/7--7-(7)-7-|----------------|
|-0--0-(0)-0-------------|-0--0-(0)-0-----|
|------------------------|----------------|



6[G]/8             5/8            6/8
e E E S S E E S e S S Q S e E E S S E E
|---------------|--------------|---------------|
|---------------|--------------|---------------|
|---------------|--------------|---------------|
|-5-------5-----|---5---5------|-5-------5-----|
|---------------|--------------|---------------|
|-3-------3-----|---3---3------|-3-------3-----|



5/8                   6[A]/8           5/8           6/8
~~~
S S S S S S S S S S e E E e E E S S E Q. e E E e E E
|---------------------|-------------|-------------|-------------|
|---------------------|-------------|-------------|-------------|
|---------------------|-2-----2-----|---2---------|-2-----2-----|
|---5---5---5-4-2-----|-2-----2-----|---2---/7----|-2-----2-----|
|-----------------5-2-|-0-----0-----|---0---------|-0-----0-----|
|---3---3-------------|-------------|-------------|-------------|



Guitar Solo
  Gtr III                                [G]      Gtr I
  |----6----| |----6----| |----6----|

S S S S S S S S S S S S S S S S S S E E E S S S S S S
|-5-3-2-------------------------------||-------------------|
|-------5-3-2-------5-3-2-3-2---------||-------------------|
|-------------4-2-------------4-2-----||---------------2---|
|-----------------5---------------5-4-||-5-------2-4-5---4-|
|-------------------------------------||-------5-----------|
|-------------------------------------||-------------------|

|
| Gtr IV
| |----6----| |----6----| |----6----|

| S S S S S S S S S S S S S S S S S S E E H
|-------------------------------------||-------------------|
|-------------------------------------||-------------------|
|-2-----------------------------------||-------------------|
|---5-4-2-----------2-----------------||-------------------|
|---------5-4-2-------5-4-5-4-2-------||-------------------|
|---------------5-3-------------5-3-2-||-3-----------------|



~ ~~~~~~~~~~
Q S S S S S S E E. S +E +E E E
|------------------|--------------------|
|------------------|--------------------|
|--------4---7---6-|-/6--4-(4)-(4)------|
|-5----5---5---5---|--------------------|
|------------------|--------------------|
|------------------|--------------------|

|
| W W
|------------------|--------------------|
|------------------|--------------------|
|------------------|--------------------|
|------------------|--------------------|
|------------------|--------------------|
|------------------|--------------------|



                              [A]~~
S S S S S S S S S S S S E. S S S S S S E S
|------------------7--------|---------------------|
|-----------7-8-10---8-10-7-|-8--7----------------|
|-------7-9-----------------|------9-7-6-7-9-/6---|
|---7s9---------------------|-------------------7-|
|---------------------------|---------------------|
|---------------------------|---------------------|



~~
|-3-|
Q. Q S T T T S S S S S S S S e e
|---------------7-|-9-7---10---12-9----14-15-|
|-------------8---|-----8-----------10-------|
|-----------9-----|--------------------------|
|-7---------------|--------------------------|
|-----------------|--------------------------|
|-----------------|--------------------------|



S S S S S S S S S S S S
|-14-10-12-10------------------------|
|-------------14-13-12-10------------|
|-------------------------12p11------|
|-------------------------------12-9-|
|------------------------------------|
|------------------------------------|



  [G]                            ~~
S S S e S S S S S S S E S E. E T T T T E
|-----------------------|----------14-15-14-12-14-|
|-8-8---8-8p7-----7-----|-------------------------|
|-------------9-7---9p7-|-9-7-9-------------------|
|-----------------------|-------------------------|
|-----------------------|-------------------------|
|-----------------------|-------------------------|



T T T T E T T T T E T T T T T T T T
|-12-14-12-10-12-10-12-10-9-10-9-10-9-7-8-10-9-7-|
|------------------------------------------------|
|------------------------------------------------|
|------------------------------------------------|
|------------------------------------------------|
|------------------------------------------------|



  S. T T T S +T  T T T S. T T T S +T  T T T   [A]E  Q  Q.
|-9--7--------------------------------------|-------------|
|------8-7-8-(8)-7--------------------------|-------------|
|------------------9-7-9--7-----------------|-------------|
|---------------------------9-7-9-(9)-------|-------------|
|-------------------------------------7-5---|-------------|
|-----------------------------------------7-|-5\----------|



S S S e S E E E e S e E e S E
|-15-15---15-15-14-12-10-|-14---12---19-17---|
|------------------------|-------------------|
|-12-12---12-12-11--9--7-|-11----9---16-14---|
|------------------------|-------------------|
|------------------------|-------------------|
|------------------------|-------------------|



S E S +S S +S E S +S S
|---22-21-(21)-19-(19)-17-15-(15)-14-||
|------------------------------------||
|---19-18-(18)-16-(16)-14-12-(12)-11-||
|------------------------------------||
|------------------------------------||
|------------------------------------||



Piano Solo
  [G] E  E E Q.      W            W            W
|-15-----------|-------------|------------|-----------|
|--------------|-------------|------------|-----------|
|-12-----------|-------------|------------|-----------|
|--------------|-------------|------------|-----------|
|--------------|-------------|------------|-----------|
|--------------|-------------|------------|-----------|

|
| Gtr V
| Q. Q. +Q. +Q. Q. +Q. Q. Q.
|--3------3----|-(3)---(3)---|------------|-3----3----|
|--3------3----|-(3)---(3)---|-3----(3)---|-3----3----|
|--0------0----|-(0)---(0)---|-2----(2)---|-0----0----|
|--0------0----|-(0)---(0)---|-0----(0)---|-----------|
|--------------|-------------|------------|-----------|
|--3------3----|-(3)---(3)---|-3----(3)---|-----------|



  [A]Q.   +Q.     +Q.   S E E S   E. S +E  E. S +S  S
|------------|---------------|---------------------|
|-2----(2)---|-(2)---2h3-3-3-|-3--2-(2)-2--2-(2)-2-|
|-2----(2)---|-(2)---2---2-2-|-2--2-(2)-2--2-(2)-2-|
|-2----(2)---|-(2)---2-------|-2--2-(2)-2--2-(2)-2-|
|-0----(0)---|-(0)---0-------|-0--0-(0)-0--0-(0)-0-|
|------------|---------------|---------------------|



  E S S S S E S S S S   [G]Q.   E. S S S   Q.   E. S S S
|-0-0-0-0-0-0-0-0-0-0-|-3----3--3-3-3-|-3----3--3-3-3-|
|-0-0-0-0-0-0-0-0-0-0-|-3----3--3-3-3-|-3----3--3-3-3-|
|-2-2-2-2-2-2-2-2-2-2-|-0----0--0-0-0-|-0----0--0-0-0-|
|-2-2-2-2-2-2-2-2-2-2-|-0----0--0-0-0-|-0----0--0-0-0-|
|-0-0-0-0-0-0-0-0-0-0-|---------------|---------------|
|---------------------|-3----3--3-3-3-|-3----3--3-3-3-|



  [Em]Q.   E. S S S   Q.   E. S S S   [Bb]E S E S S S E S S
|-0----0--0-0-0-|-0----0--0-0-0-|-------------------|
|-0----0--0-0-0-|-0----0--0-0-0-|-3-3-3-3-3-3-3-3-3-|
|-0----0--0-0-0-|-0----0--0-0-0-|-3-3-3-3-3-3-3-3-3-|
|-2----2--2-2-2-|-2----2--2-2-2-|-3-3-3-3-3-3-3-3-3-|
|-2----2--2-2-2-|-2----2--2-2-2-|-1-1-1-1-1-1-1-1-1-|
|-0----0--0-0-0-|-0----0--0-0-0-|-------------------|



  E S E S S S E S S   [Gm]E S E S S S E S S   [Asus4]E S S S S [A]E S S S S
|-------------------|-3-3-3-3-3-3-3-3-3-|----------------------||
|-3-3-3-3-3-3-3-3-3-|-3-3-3-3-3-3-3-3-3-|-3-3-3-3-3-2-2-2-2-2--||
|-3-3-3-3-3-3-3-3-3-|-3-3-3-3-3-3-3-3-3-|-2-2-2-2-2-2-2-2-2-2--||
|-3-3-3-3-3-3-3-3-3-|-5-5-5-5-5-5-5-5-5-|-2-2-2-2-2-2-2-2-2-2--||
|-1-1-1-1-1-1-1-1-1-|-5-5-5-5-5-5-5-5-5-|-0-0-0-0-0-0-0-0-0-0--||
|-------------------|-3-3-3-3-3-3-3-3-3-|----------------------||



Outro
5/8 6/8
Gtr III
S S S S S S E S S S S S S S E S S S S S S S S S S S E S S S S
|-----------------------|-------------------|------------------------|
|-----------------------|-------------------|------------------------|
|-----------------------|-------------------|------------------------|
|---------2-5-3-2-------|---------2-5-3-2-3-|---------2-5-3-2--------|
|-1---1-3---------5-3-5-|-1---1-3-----------|-1---1-3---------5-3-5--|
|---1-------------------|---1---------------|---1--------------------|



S S S E S S S S S S S S S S S S S E S S S S
|-----------------------||-----------------------|
|-----------------------||-----------------------|
|---------------2---3-2-||-----------------------|
|---------2-5-3---5-----||---------4-7-5-4-------|
|-1---1-3---------------||-3---3-5---------7-5-7-|
|---1-------------------||---3-------------------|



5/8 6/8
S S S E S S S S S S S S S S S E S S S S
|-------------------|------------------------|
|-------------------|------------------------|
|-------------------|------------------------|
|---------4-7-5-4-5-|---------4-7-5-4--------|
|-3---3-5-----------|-3---3-5---------7-5-7--|
|---3---------------|---3--------------------|



S S S E S S S S S S S S S S S S S E S S S S
|-----------------------||-----------------------|
|-----------------------||-----------------------|
|---------------4---5-4-||-----------------------|
|---------4-7-5---7-----||---------6-9-7-6-------|
|-3---3-5---------------||-5---5-7---------9-7-9-|
|---3-------------------||---5-------------------|



5/8 6/8
S S S E S S S S S S S S S S S E S S S S
|-------------------|-----------------------|
|-------------------|-----------------------|
|-------------------|-----------------------|
|---------6-9-7-6-7-|---------6-9-7-6-------|
|-5---5-7-----------|-5---5-7---------9-7-9-|
|---5---------------|---5-------------------|



(16=s16)
~~
S S S E S S S S E. E S S E S S E S S
|--------------------|-------------------------|
|--------------------|----------------------10-|
|--------------------|--------------9----11----|
|---------6-9-7-6-7--|------------9---12-------|
|-5---5-7------------|----9-12-11--------------|
|---5----------------|-10----------------------|



Q=1H.=H
                            [E]     ~~~~~~~~~
E S S E S S S S S S +Q. +E E E
|------12-10-14-10------------|----------------*|
|-9-12-------------12-------9-|-(9)---(9)------*|
|---------------------14-13-9-|-(9)---(9)------*|
|-----------------------------|----------------*|
|-----------------------------|----------------*|
|-----------------------------|----------------*|



Duration Legend
---------------
W - whole; H - half; Q - quarter; E - 8th; S - 16th; T - 32nd; X - 64th; a - acciaccatura

+ - note tied to previous; . - note dotted; .. - note double dotted
Uncapitalized letters represent notes that are staccato (1/2 duration)
Irregular groupings are notated above the duration line
Duration letters will always appear directly above the note/fret number it represents the
duration for. Duration letters with no fret number below them represent rests. Multi-
bar rests are notated in the form Wxn, where n is the number of bars to rest for. Low
melody durations appear below the staff

Tablature Legend
----------------

h - hammer-on
p - pull-off
b - bend
pb - pre-bend
r - bend release (if no number after the r, then release immediately)
/\ - slide into or out of (from/to "nowhere")
s - legato slide
S - shift slide
- natural harmonic
(n) - artificial harmonic
n(n) - tapped harmonic
~ - vibrato
tr - trill
T - tap
TP - trem. picking
PM - palm muting
\n/ - tremolo bar dip; n = amount to dip
\n - tremolo bar down
n/ - tremolo bar up
/n\ - tremolo bar inverted dip
= - hold bend; also acts as connecting device for hammers/pulls
<> - volume swell (louder/softer)
x - on rhythm slash represents muted slash
o - on rhythm slash represents single note slash

Misc Legend
-----------

| - bar
|| - double bar
||o - repeat start
o|| - repeat end
*| - double bar (ending)
: - bar (freetime)
$ - Segno
& - Coda
Tempo markers - = BPM(8/16=s8/s16), where s8 = swing 8ths, s16 = swing 16ths


***************************************************************************************
* Generated using Power Tab Editor by Brad Larsen - http://powertab.guitarnetwork.org *
***************************************************************************************

Important: The song above is NOT stored on the Chordie server. The original song is hosted at www.xguitar.com. Chordie works as a search engine and provides on-the-fly formatting. Chordie does not index songs against artists/composers will. To remove this song please click here.

A Aadd9 Asus4 Badd4 Bb E Em F#m G Gm
variations - click chord images

Login - add to songbook

Transpose chords

Tuning

Rating click stars to rate

Layout
Accuracy

SHARE PAGE  

You need to log in to post comments