Guitar Tabs, Chords and Lyrics
Major upgrade!! After one year development the new version of Chordie is now online! Please give feedback.


Jane Doe   Converge

 
 D :-----------------|------------------|--------------------|
 A :-----------------|------------------|--------------------|
 F :--------6------\-|------6-----------|-----6-----7--------|
 C :0----------------|0-------------5---|0-------------------|
 G :0----/5----------|0--/5-------------|0-/5---5/6----------|
 C :0----------------|0---------3h4-----|0-------------------|
 D :-------------------|----------------|----------------------------|
 A :-------------------|----------------|----------------------------|
 F :-------------------|--------8-------|-----------------3-3-3-3-3-3|
 C :--12-----7b--------|5-------8-x4----|5---0-0-0-0-0-0--2-2-2-2-2-2|
 G :-------------------|5-x13---6-------|5---0-0-0-0-0-0--1-1-1-1-1-1|
 C :8----8\4-----------|5---------------|5---0-0-0-0-0-0-------------|

 


 |figure out strum| . . . . . .


 pattern


 


 

 
 D :--------------------------|--------------------|---------------------|
 A :--------------------------|--------------------|---------------------|
 F :------7--7----------8--7--|---------8--3-------|---3-3-3----3-3-3----|
 C :0--0--7--7--0--3--5-7--7--|0--3--5--7--3-------|2--2-2-2-2--2-2-2----|
 G :0--0--5--5--0--3--5-6--5--|0--3--5--6--1-------|2--1-1-1-2--1-1-1----|
 C :0--0--------0--3--5-------|0--3--5-------------|2--------2-----------|

 


 . . . d u d u d u d u


 

 
 D :----------------|
 A :----------------|
 F :----------------|
 C :2/3-------------|
 G :2/3-------------|
 C :2/3-------------|
 D :----------------|----------------|---------6----|--------|
 A :----------------|----------------|---------6----|--------|
 F :----------------|-----8---3------|---------8-x6-|--------|
 C :2/3-3-3/5-------|-5---8---3---3--|-0-------8----|-0--0-0-|
 G :2/3-3-3/5-------|-5---6---1---3--|-0-------6----|-0--0-0-|
 C :2/3-3-3/5-------|-5-----------3--|-0------------|-0--0-0-|

 


 |___________| . . .


 figure strum ptrn


 


 ending @ approx 6:30


 


 

 
 D :---------------------|
 A :---------------------|
 F :---------8-8-8-8-8-8-|
 C :-0-------7-7-7-7-7-7-| repeat, slowing down each time
 G :-0-------6-6-6-6-6-6-| until you get to the epicness..
 C :-0-------------------|
 D :-------------------------|-------------------------------------|
 A :-------------------------|------------3-------------6p3-3------|
 F :-----7-7---------7-7-----|----------3---3------2p0------5b-----|
 C :---------0-----------0---|--------0-------0--------------------|
 G :--8-------8---8----------|-------------------------------------|
 C :8-----------8------------|-8\4--4-----------4------------------|
 D :--------------------|----------------------------|------------------|
 A :--------3-----------|----------------------------|------------------|
 F :r5-p3-3-3-3-3-3-----|-------------------------|------------------|
 C :----------7-3-3h5-0-|-----0---x--x------------|5-5-5-5-5-5-------|
 G :------------------0-|-----0---x-----x---------|5-5-5-5-5-5-x2----|
 C :------------------0-|--2b-0---x-----x---------|5-5-5-5-5-5-------|

 


 h[+]armoni[+]cs


 

 
 D :------------------|
 A :------------------|
 F :------------------|
 C :1-1-1-1-1-1-------|
 G :1-1-1-1-1-1-x2----|
 C :1-1-1-1-1-1-------|


Important: The song above is NOT stored on the Chordie server. The original song is hosted at www.guitaretab.com. Chordie works as a search engine and provides on-the-fly formatting. Chordie does not index songs against artists'/composers' will. To remove this song please click here.

This song is displayed as text-only. Transposing and tuning is only available for chordpro-songs.
Rate #1 of 3 versions

Jango Player

Login - add to songbook

SHARE PAGE  




You need to log in to post comments