Guitar Tabs, Chords and Lyrics
Major upgrade!! After one year development the new version of Chordie is now online! Please give feedback.


War Machine  AC/DC

AC/DC-War Machine
Black Ice (2008)
Transcribed by: playinbass1432
Email: playinbass1432@hotmail.com
Standard Tuning
Intro:
[E]  
 
 G|-----------------|-----------------|-----------------|-----------------|
 D|-----------------|-----------------|-----------------|-----------------|
 A|-----------------|-----------------|-----------------|-----------------|
 E|-0-0-0-0-0-0-0-0-|-0-0-0-0-0-0-0-0-|-0-0-0-0-0-0-0-0-|-0-0-0-0-0-0-0-0-|

[E]  
 
 G|-----------------|-----------------|-----------------|-----------------|
 D|-----------------|-----------------|-----------------|-----------------|
 A|-----------------|-----------------|-----------------|-----------------|
 E|-0-0-0-0-0-0-0-0-|-0-0-0-0-0-0-0-0-|-0-0-0-0-0-0-0-0-|-0-0-0-0-0-0-0-0-|

[E]  
 
 G|-----------------|-----------------|-----------------|-----------------|
 D|-----------------|-----------------|-----------------|-----------------|
 A|-----------------|-----------------|-----------------|-----------------|
 E|-0-0-0-0-0-0-0-0-|-0-0-0-0-0-0-0-0-|-0-0-0-0-0-0-0-0-|-0-0-0-0-0-0-0-0-|

[E]  
 
 G|-----------------|-----------------|-----------------|-----------------|
 D|-----------------|-----------------|-----------------|-----------------|
 A|-----------------|-----------------|-----------------|-----------------|
 E|-0-0-0-0-0-0-0-0-|-0-0-0-0-0-0-0-0-|-0-0-0-0-0-0-0-0-|-0-0-0-0-0-0-0-0-|

[E] [G] [E] [A] [E] [G] [E] [A] [E]  
 
 G|-----------------|-----------------|-----------------|-----------------|
 D|-----------------|-----------------|-----------------|-----------------|
 A|-----------------|-----------------|-----------------|-----------------|
 E|-0-0-0-0-0-0-0-0-|-0-0-0-0-0-0-0-0-|-3-0-0-5-0-0-0-0-|-3-0-0-5-0-0-0-0-|

[G] [E] [A] [E] [G] [E] [A] [E] [D] [A]  
 
 G|-----------------|-----------------|-----------------|-----------------|
 D|-----------------|-----------------|-----------------|-----------------|
 A|-----------------|-----------------|-5-5-5-5-5-5-5-5-|-----------------|
 E|-3-0-0-5-0-0-0-0-|-3-0-0-5-0-0-0-0-|-----------------|-5-5-5-5-5-5-5-5-|

[G] [E] [A] [E] [G] [E] [A] [E] [G] [E] [A] [E] [G] [E] [A] [E]  
 
 G|-----------------|-----------------|-----------------|-----------------|
 D|-----------------|-----------------|-----------------|-----------------|
 A|-----------------|-----------------|-----------------|-----------------|
 E|-3-0-0-5-0-0-0-0-|-3-0-0-5-0-0-0-0-|-3-0-0-5-0-0-0-0-|-3-0-0-5-0-0-0-0-|

Verse 1:
[G] [E] [A] [E] [G] [E] [A] [E] [G] [E] [A] [E] [G] [E] [A] [E]  
 
 G|-----------------|-----------------|-----------------|-----------------|
 D|-----------------|-----------------|-----------------|-----------------|
 A|-----------------|-----------------|-----------------|-----------------|
 E|-3-0-0-5-0-0-0-0-|-3-0-0-5-0-0-0-0-|-3-0-0-5-0-0-0-0-|-3-0-0-5-0-0-0-0-|

[G] [E] [A] [E] [G] [E] [A] [E] [G] [E] [A] [E] [D] [A]  
 
 G|-----------------|-----------------|-----------------|-----------------|
 D|-----------------|-----------------|-----------------|-----------------|
 A|-----------------|-----------------|-----------------|-5-5-5-5---------|
 E|-3-0-0-5-0-0-0-0-|-3-0-0-5-0-0-0-0-|-3-0-0-5-0-0-0-0-|---------5-5-5-5-|

[D] [A] [D] [A] [D] [A]  
 
 G|-----------------|-----------------|-----------------|-----------------|
 D|-----------------|-----------------|-----------------|-----------------|
 A|-5-5-5-5---------|-5-5-5-5---------|-5-5-5-5-5-5-5-5-|-----------------|
 E|---------5-5-5-5-|---------5-5-5-5-|-----------------|-5-5-5-5-5-5-3-2-|

Chorus 1:
[G] [E] [A] [E] [G] [E] [A] [E] [G] [E] [A] [E] [G] [E] [A] [E]  
 
 G|-----------------|-----------------|-----------------|-----------------|
 D|-----------------|-----------------|-----------------|-----------------|
 A|-----------------|-----------------|-----------------|-----------------|
 E|-3-0-0-5-0-0-0-0-|-3-0-0-5-0-0-0-0-|-3-0-0-5-0-0-0-0-|-3-0-0-5-0-0-0-0-|

Verse 2:
[G] [E] [A] [E] [G] [E] [A] [E] [G] [E] [A] [E] [G] [E] [A] [E]  
 
 G|-----------------|-----------------|-----------------|-----------------|
 D|-----------------|-----------------|-----------------|-----------------|
 A|-----------------|-----------------|-----------------|-----------------|
 E|-3-0-0-5-0-0-0-0-|-3-0-0-5-0-0-0-0-|-3-0-0-5-0-0-0-0-|-3-0-0-5-0-0-0-0-|

( Tab from: http://www.guitartabs.cc/tabs/a/ac_dc/war_machine_btab.html )
[G] [E] [A] [E] [G] [E] [A] [E] [G] [E] [A] [E] [D] [A]  
 
 G|-----------------|-----------------|-----------------|-----------------|
 D|-----------------|-----------------|-----------------|-----------------|
 A|-----------------|-----------------|-----------------|-5-5-5-5---------|
 E|-3-0-0-5-0-0-0-0-|-3-0-0-5-0-0-0-0-|-3-0-0-5-0-0-0-0-|---------5-5-5-5-|

[D] [A] [D] [A] [D] [A]  
 
 G|-----------------|-----------------|-----------------|-----------------|
 D|-----------------|-----------------|-----------------|-----------------|
 A|-5-5-5-5---------|-5-5-5-5---------|-5-5-5-5-5-5-5-5-|-----------------|
 E|---------5-5-5-5-|---------5-5-5-5-|-----------------|-5-5-5-5-5-5-3-2-|

Chorus 2:
[G] [E] [A] [E] [G] [E] [A] [E] [G] [E] [A] [E] [G] [E] [A] [E]  
 
 G|-----------------|-----------------|-----------------|-----------------|
 D|-----------------|-----------------|-----------------|-----------------|
 A|-----------------|-----------------|-----------------|-----------------|
 E|-3-0-0-5-0-0-0-0-|-3-0-0-5-0-0-0-0-|-3-0-0-5-0-0-0-0-|-3-0-0-5-0-0-0-0-|

Bridge:
[E]  
 
 G|-----------------|-----------------|-----------------|-----------------|
 D|-----------------|-----------------|-----------------|-----------------|
 A|-----------------|-----------------|-----------------|-----------------|
 E|-0-0-0-0-0-0-0-0-|-0-0-0-0-0-0-0-0-|-0-0-0-0-0-0-0-0-|-0-0-0-0-0-0-0-0-|

[E]  
 
 G|-----------------|-----------------|-----------------|-----------------|
 D|-----------------|-----------------|-----------------|-----------------|
 A|-----------------|-----------------|-----------------|-----------------|
 E|-0-0-0-0-0-0-0-0-|-0-0-0-0-0-0-0-0-|-0-0-0-0-0-0-0-0-|-0-0-0-0-0-0-0-0-|

[E]  
 
 G|-----------------|-----------------|-----------------|-----------------|
 D|-----------------|-----------------|-----------------|-----------------|
 A|-----------------|-----------------|-----------------|-----------------|
 E|-0-0-0-0-0-0-0-0-|-0-0-0-0-0-0-0-0-|-0-0-0-0-0-0-0-0-|-0-0-0-0-0-0-0-0-|

[E]  
 
 G|-----------------|-----------------|-----------------|-----------------|
 D|-----------------|-----------------|-----------------|-----------------|
 A|-----------------|-----------------|-----------------|-----------------|
 E|-0-0-0-0-0-0-0-0-|-0-0-0-0-0-0-0-0-|-0-0-0-0-0-0-0-0-|-0-0-0-0-0-0-0-0-|

[D] [A] [D] [A] [D] [A] [D] [A]  
 
 G|-----------------|-----------------|-----------------|-----------------|
 D|-----------------|-----------------|-----------------|-----------------|
 A|-5-5-5-5---------|-5-5-5-5---------|-5-5-5-5---------|-5-5-5-5---------|
 E|---------5-5-5-5-|---------5-5-5-5-|---------5-5-5-5-|---------5-5-5-5-|

[D] [A]  
 
 G|-----------------|-----------------|
 D|-----------------|-----------------|
 A|-5-5-5-5-5-5-5-5-|-----------------|
 E|-----------------|-5-5-5-5-3-3-2-0-|

Chorus 3/Guitar Solo:
[G] [E] [A] [E] [G] [E] [A] [E] [G] [E] [A] [E] [G] [E] [A] [E]  
 
 G|-----------------|-----------------|-----------------|-----------------|
 D|-----------------|-----------------|-----------------|-----------------|
 A|-----------------|-----------------|-----------------|-----------------|
 E|-3-0-0-5-0-0-0-0-|-3-0-0-5-0-0-0-0-|-3-0-0-5-0-0-0-0-|-3-0-0-5-0-0-0-0-|

[D] [A] [D] [A] [D] [A] [D] [A]  
 
 G|-----------------|-----------------|-----------------|-----------------|
 D|-----------------|-----------------|-----------------|-----------------|
 A|-5-5-5-5---------|-5-5-5-5---------|-5-5-5-5---------|-5-5-5-5---------|
 E|---------5-5-5-5-|---------5-5-5-5-|---------5-5-5-5-|---------5-5-5-5-|

[D] [A]  
 
 G|-----------------|-----------------|
 D|-----------------|-----------------|
 A|-5-5-5-5-5-5-5-5-|-----------------|
 E|-----------------|-5-5-5-5-5-5-5-5-|

Outro:
[G] [E] [A] [E] [G] [E] [A] [E] [G] [E] [A] [E] [G] [E] [A] [E]  
 
 G|-----------------|-----------------|-----------------|-----------------|
 D|-----------------|-----------------|-----------------|-----------------|
 A|-----------------|-----------------|-----------------|-----------------|
 E|-3-0-0-5-0-0-0-0-|-3-0-0-5-0-0-0-0-|-3-0-0-5-0-0-0-0-|-3-0-0-5-0-0-0-0-|

[G] [E] [A] [E] [G] [E] [A] [E] [G] [E] [A] [E] [G] [E] [A] [E]  
 
 G|-----------------|-----------------|-----------------|-----------------|
 D|-----------------|-----------------|-----------------|-----------------|
 A|-----------------|-----------------|-----------------|-----------------|
 E|-3-0-0-5-0-0-0-0-|-3-0-0-5-0-0-0-0-|-3-0-0-5-0-0-0-0-|-3-0-0-5-0-------|


Important: The song above is NOT stored on the Chordie server. The original song is hosted at www.guitartabs.cc. Chordie works as a search engine and provides on-the-fly formatting. Chordie does not index songs against artists'/composers' will. To remove this song please click here.

Text color:
Chord color:
Chord grids: 
Font size:    
Page size: 

A D E G
Rate #1 of 5 versions

Jango Player

Login - add to songbook

SHARE PAGE  



You need to log in to post comments