Guitar Tabs, Chords and Lyrics
Major upgrade!! After one year development the new version of Chordie is now online! Please give feedback.


Der letzte Tag  Tokio Hotel

 
 -------------------------------------------------------------------------------

Der Letzte Tag - Tokio Hotel
 
 -------------------------------------------------------------------------------

Tabbed by:ThebandDDNK
well the other tabs for this song were REALLY bad so I had to do something... ENJOY!
Intro:
 
 e|--------------------------------|
 B|--------------------------------|
 G|--------------------------------|
 D|--------------------------------| x6
 A|-------------5-4----------------|
 E|-4-4-4-4-4-4-----5-5-5-5-5-5-5-5|

Bridge:
[C#] [E] [C#] [E]  
 
 e|-------|-------|-------|-----------------|
 B|-------|-------|-------|-----------------|
 G|-------|-------|-------|-----------------|
 D|---6---|---9---|---6---|-9-9-9-9-9-9-9-9-|
 A|---4---|---7---|---4---|-7-7-7-7-7-7-7-7-|
 E|-------|-------|-------|-----------------|

Chorus:
[G#] [E] [B] [F#]  
 
 e|------------|------------|
 B|------------|------------|
 G|------------|------------| x3
 D|--------9-9-|---4-4------|
 A|---6-6--7-7-|---2-2--4---|
 E|---4-4------|--------2---|

[E] [C#] [E] [E] [C#] [E]  
 
 e|-----------------------------|----------------------------|
 B|-----------------------------|----------------------------|
 G|-----------------------------|----------------------------|
 D|---9--6-6-6-6--9-9-9-9-9-9-9-|-7--6-6-6-6--9-9-9-9-9-9-9--|
 A|---7--4-4-4-4--7-7-7-7-7-7-7-|-9--4-4-4-4--7-7-7-7-7-7-7--|
 E|----------------------------------------------------------|

Back to intro:
 
 e|--------------------------------|
 B|--------------------------------|
 G|--------------------------------|
 D|--------------------------------| x4
 A|-------------5-4----------------|
 E|-4-4-4-4-4-4-----5-5-5-5-5-5-5-5|

( Tab from: http://www.guitartabs.cc/tabs/t/tokio_hotel/der_letzte_tag_tab_ver_3.html )
Bridge:
[C#] [E] [C#] [E]  
 
 e|-------|-------|-------|-----------------|
 B|-------|-------|-------|-----------------|
 G|-------|-------|-------|-----------------|
 D|---6---|---9---|---6---|-9-9-9-9-9-9-9-9-|
 A|---4---|---7---|---4---|-7-7-7-7-7-7-7-7-|
 E|-------|-------|-------|-----------------|

Chorus:
[G#] [E] [B] [F#]  
 
 e|------------|------------|
 B|------------|------------|
 G|------------|------------| x3
 D|--------9-9-|---4-4------|
 A|---6-6--7-7-|---2-2--4---|
 E|---4-4------|--------2---|

[E] [C#] [E] [E] [C#] [E]  
 
 e|-----------------------------|----------------------------|
 B|-----------------------------|----------------------------|
 G|-----------------------------|----------------------------|
 D|---9--6-6-6-6--9-9-9-9-9-9-9-|-7--6-6-6-6--9-9-9-9-9-9-9--|
 A|---7--4-4-4-4--7-7-7-7-7-7-7-|-9--4-4-4-4--7-7-7-7-7-7-7--|
 E|----------------------------------------------------------|

Verse:
[G#] [E] [B] [F#]  
 
 e|---------|-----------|
 B|---------|-----------|
 G|---------|-----------| x4
 D|-------9-|----4------|
 A|---6---7-|----2--4---|
 E|---4-----|-------2---|

[G#] [E] [B] [F#]  
 
 e|------------|------------|
 B|------------|------------|
 G|------------|------------| x2
 D|--------9-9-|---4-4------|
 A|---6-6--7-7-|---2-2--4---|
 E|---4-4------|--------2---|

Bridge:
[C#] [E] [C#] [E]  
 
 e|-------|-------|-------|-----------------|
 B|-------|-------|-------|-----------------|
 G|-------|-------|-------|-----------------|
 D|---6---|---9---|---6---|-9-9-9-9-9-9-9-9-|
 A|---4---|---7---|---4---|-7-7-7-7-7-7-7-7-|
 E|-------|-------|-------|-----------------|

Chorus x3
[E] [C#] [E]  
 
 e|-----------------------------|
 B|-----------------------------|
 G|-----------------------------| x1
 D|---9--6-6-6-6--9-9-9-9-9-9-9-|
 A|---7--4-4-4-4--7-7-7-7-7-7-7-|
 E|-----------------------------|

Chorus x3
[E] [C#] [E]  
 
 e|-----------------------------|
 B|-----------------------------|
 G|-----------------------------| x2
 D|---9--6-6-6-6--9-9-9-9-9-9-9-|
 A|---7--4-4-4-4--7-7-7-7-7-7-7-|
 E|-----------------------------|

.
.
.
.
.
.
to the end....

Important: The song above is NOT stored on the Chordie server. The original song is hosted at www.guitartabs.cc. Chordie works as a search engine and provides on-the-fly formatting. Chordie does not index songs against artists'/composers' will. To remove this song please click here.

Text color:
Chord color:
Chord grids: 
Font size:    
Page size: 

B C# E F# G#
Rate #1 of 5 versions

Login - add to songbook

SHARE PAGE  




You need to log in to post comments