Guitar Tabs, Chords and Lyrics


Fire  Bruce Springsteen

e----------------------------


B----------------------------


G----------------------------


D----------------------------


A---5--5-5-5-5---5-5-5-5-5---


E---3--3-0-0-3---3-3-0-0-3---


e----------------------------


B----------------------------


G----------------------------


D----------------------------


A---7--7-7-7-7---7-7-7-7-7---


E---5--5-0-0-5---5-5-0-0-5---

You had a ho[G]ld on me right from the st[C]art
A gr[D]ip so tight I couldn't t[G]ear it apart
My ne[C]rves all jumpin' actin' [G]like a fool
Well your ki[A7]sses they burn but your [D]heart stays cool
G riff
Romeo and Juliet, Samson and Delilah
A riff G riff
Baby, you can bet their love didn't deny
A riff G riff
Your words say split but your words they lie
C D G riff
'Cause when we kiss... Fire
It is easier to me to play barre chords for all chords other than the
riffs.
E A D G B e
[C]   [-]    [3]  [3]  [5]  [5]  [5]  [3]  [D]   [-]    [5]  [5]  [7]  [7]  [7]  [5]  [G]   [-]    [3]  [5]  [5]  [4]  [3]  [3]  [A7]   [-]    [5]  [7]  [5]  [6]  [5]  [5]                    

Important: The song above is NOT stored on the Chordie server. The original song is hosted at www.guitaretab.com. Chordie works as a search engine and provides on-the-fly formatting. Chordie does not index songs against artists'/composers' will. To remove this song please click here.

Text color:
Chord color:
Chord grids: 
Font size:    
Page size: 

A7 C D G
variations - click chord images

Login - add to songbook

Transpose chords

Tuning

Rating click stars to rate

Layout
Accuracy

SHARE PAGE  




You need to log in to post comments

elviswarne (report)

hmm...is there another HALF to this song?