I Don't Even Know Your Name (Guitar Solos)

Alan Jackson

(E->C,A->F,D->Eb,G->Bb,B->G,e->c) - it sounded a bit mental at first but it at


 AE
e:-------------------------------------5--------------------|-------12-10p9-7s
5--------|
B:--------------------------0-6-7-8/10---108---------------|-----------------
---------|
G:------------0-----4-5-6-7-------------------7/87-5/6-----|-11/13-----------
---------|
D:------1-2-4---6-7-------------------------------------7-5-|-----------------
---------|
A:0-3-4-----------------------------------------------------|-----------------
---------|
E:----------------------------------------------------------|-----------------
---------|


 A
e:-------------------------------------------------|--------------------------
--------|
B:-8p7p5---5s3---3-2p0-----------------------------|---------------2p0---3-2p0
---0----|
G:-------7-----4-------3p2p0h1---------------------|-----2-0-0-----2p0---4-2p0
---0----|
D:-----------------------------2-0-----------------|-----2-0-0-2s4-----2------
-2------|
A:---------------------------------2-1-0---------0-|-2s4----------------------
--------|
E:---------------------------------------3-0-3/4---|--------------------------
--------|

 EB
e:-------------------------|-----------------------------------------------7--
-------|
B:-------------------------|-------------------------------------------------7

/--5---|
G:-------------------------|----------------------------4---4x4x4x-76-5------
-------|
D:-2-1-0-----2-------------|------------------2---4-5-6------------------6----
-------|
A:-------3s4---4p3p0-3/4-0-|--------2---2-3-4---------------------------------
-------|
E:-------------------------|-0-2-3-4------------------------------------------
-------|


 E
e:-0---0-----0---0---0---0---0---3h4-0-3-0---------------------------------|
B:---5---5-----------------------5---------3-0-----------------------------|
G:---------7---7---6---6---5---5---------------3-2-0-----------------------|
D:---------------------------------------------------2-0-------------------|
A:-------------------------------------------------------2-1-0-------------|
E:-------------------------------------------------------------3/-0--------|


Acoustic Solo
=============
 A
e:-5-3-0-----------0-----------------------------------------------------|
B:-------4-3-1-3-4---4-3-1-3-1-----1s2-----------------------------------|
G:-----------------------------2-0-----2---------------------------------|
D:---------------------------------------5-4-2-------2-------------------|
A:---------------------------------------------5-3s4---4p2p0-2-0---------|
E:---------------------------------------------------------------3-0-----|


 E
e:-----------------------------------------------------|
B:---------------------5-0-5-0-5-0-4s5-0-5-0-5-0-4s5---|
G:-----------------4h6---0-4-0-4-0-3s4-0-4-0-4-0-3s4---|
D:---------2-0-4s6-------------------------------------|
A:-----2-4---------------------------------------------|
E:-3-4-------------------------------------------------|


 A
e:-----7---------------------------------------------------------|
B:-------8-7-5---5----------------------------sssss-10---sss-14--|
G:-5h6---------7---5h6---------------------6---------------------|
D:---------------------7-5-4-------7-4-5s7---7sssss---11-sss-14--|
A:---------------------------7-5-4-------------------------------|
E:---------------------------------------------------------------|


 E
e:-12------------------------------------------------|
B:----14-15-14-12-------------12---------------------|
G:----------------15-14p12h13----15p14p12-14-12------|
D:----------------------------------------------12---|
A:---------------------------------------------------|
E:---------------------------------------------------|


B (it's something like this)
e:--------------------0-----0--------------------|
B:-------7-10-9-7--------------------------------|
G:-----8----------8-9---9s7---7-6h7--------------|
D:-9-9------------------------------9-7s5h6------|
A:------------------------------------------7-5--|
E:-----------------------------------------------|


Last Solo
=========
 A
e:-8-9-7-------------------------------------------------------|
B:-------10-8-10-7-8------7h8-7-5-3----------------------------|
G:-------------------9-7------------5h6------------------------|
D:--------------------------------------7-5s4---------2--------|
A:--------------------------------------------7-5s3h4---3/4-0--|
E:-------------------------------------------------------------|


 E
e:----------------------------------------------------|
B:-----------------------------------------------5----|
G:----------------------------------------------------|
D:---2-0--------2p0h2------------2-0------2ssss7------|
A:-------2p0----------2p0---0--------2-0--------------|
E:-0---------3------------3---3/----------------------|


Batman bit at the end - i can't see what else it can be but it sounds odd
(technique probably)
 A
e:-----------------------------------------------------------------|
B:-----0---0-------2---0-------0---0-------2---0-------2-----0-----|
G:-----0---0-------2---0-------0---0-------2---0-------2-----0-----|
D:-2s4---4---4p2h4---4---4p2h4---4---4p2h4---4---4p2h4---0h2-------|
A:-----------------------------------------------------------------|
E:-----------------------------------------------------------------|


 E
e:-0-3p2p0------------------------------------------------------|
B:---------3p2p0------------------------------------------------|
G:---------------3p2p0------------------------------------------|
D:---------------------2-0--------------------------------------|
A:-------------------------2-1-0-----0-1p0-1s2-1s2-1s2-0--------|
E:-------------------------------3-4---------------------3-4-0--|


==============================================================================
=============
NListon339@aol.com

I think I'll tackle some Clint Black next.


A B E
variations - click chord images
Transpose chords:
Tuning:
Cool service:
View: Size:
A  A  A
Rating:
Layout:
  • Currently 3/5 Stars.
  • 1
  • 2
  • 3
  • 4
  • 5
 
Accuracy:
  • Currently 2.7/5 Stars.
  • 1
  • 2
  • 3
  • 4
  • 5
 
click stars to rate
Chordie recommends:
Learn to play this song & others via video guitar lessons at JamPlay.com
Songbook:
Login to add this song to your songbook
Support the artist
Preview/buy this song
MSN Music
Why this non-profit ad?

 
login to add comments/video/corrections