Guitar Tabs, Chords and Lyrics


Ten Years Of Service  Dropkick Murphys

e------|--------------------------------------|--0~---0---0--0--0--0--0---|


B--3~--|--------------------------------------|--0~---12--12-12-12-12-12--|


G--2~--|--2-2-4-2--2-2-4-2--------------------|--1~-----------------------|

D--0~--|--0-0-0-0--0-0-0-0--2-2-4-2--2-2-4-2--|--2~-----------------------|
A------|--------------------0-0-0-0--0-0-0-0--|--2~-----------------------|
E------|--------------------------------------|--0~-----------------------|
[D]The status of our [A]future in both [D]past and present [A]time,
D A E~
Is relegated to a member of a higher class than mine
To de[D]termine and dir[A]ect the lives of [D]family men who [A]bear the burden
Of [D]living up to [A]standard that doesn't [E]exist in 1999

Chorus 1:
[A]Who's gonna [D]save us from this [A]lonely picket [E]line,
[A]10 years of [D]service, bu[G-D]t I'm [A]still not worth your [E]time

Verse 2:
[D]Times may be [A]changing, but I'll [D]never leave be[A]hind
D A E~
The hopes and thoughts I have of better days for families such as mine
Because if [D]history re[A]peats itself, and [D]time will surely [A]tell
D A E~
What goes around's gonna come around, and you'll know our pain too well

Chorus 2:
W[A]ho's gonna s[D]ave us from this l[A]onely picket l[E]ine,
[A]10 years of [D]service, bu[G-D]t I'm [A]still not worth your [E]time,
And I've seen [A]men give their l[D]ives, and heard the [A]stories that they [E]tell
Of how they [A]labored for this [D]compa[G-D]ny which [A]sold it's soul to [E]hell...

Bridge:
D~ E~ A~ D A
The status of our future in both past and present time,
D~ E~ A~ D A
Is relegated to a member of a higher class than mine
D~ E~ A~ D A
To determine and direct the lives of family men who bear the burden
D~ E~ A~ D E
Of living up to standard that doesn't exist in 1999

Chorus 2

Chorus 1

e-------------------------------------|
B-----------------2~----3p2--3p2--2~--|
G--1---1---1---1--2~----2----2----2~--|
D--2---2---2---2--2~----2----2----2~--|
A--2---2---2---2--0~----0----0----0~--|
E--0---0---0---0----------------------|


That's it! For suggestions, corrections, and requests, email me:
oddmenout4@yahoo.com

Important: The song above is NOT stored on the Chordie server. The original song is hosted at www.guitaretab.com. Chordie works as a search engine and provides on-the-fly formatting. Chordie does not index songs against artists'/composers' will. To remove this song please click here.

Text color:
Chord color:
Chord grids: 
Font size:    
Page size: 

A D E
variations - click chord images

Login - add to songbook

Transpose chords

Tuning

Rating click stars to rate

Layout
Accuracy

SHARE PAGE  




You need to log in to post comments