e--14~---------------------------------15----------------------------------|

b-----15--15--15--15--15--15--15--15------15--15--15--15--15--15--15--15---|
g-------16--16--16--16--16--16--16--16------16--16--16--16--16--16--16--16-|
d--------------------------------------------------------------------------|
a--------------------------------------------------------------------------|
e--------------------------------------------------------------------------|

 Bm-G-
e--14~----------------------------------15~---------------------------------|
b-----15--15--15--15--15--15--15--15------15--15--15--15--15--15--15--15----|
g-------16--16--16--16--16--16--16--16------16--16--16--16--16--16--16--16--|
d---------------------------------------------------------------------------|
a---------------------------------------------------------------------------|
e---------------------------------------------------------------------------|


"...everybody............feels the same as...

 D-A-
e--14~---------------------------------------------------------------------|
b-----15--15--15--15-----17~15--15--15--15---------------------------------|
g-------16--16--16--16--------16--16--16--16-------------------------------|
d--------------------------------------------------------------------------|
a--------------------------------------------------------------------------|
e--------------------------------------------------------------------------|


"...you..."

 G-
e--14~------------------------------------------------------------------|
b-----15--15--15--15--15--15--15--15------------------------------------|
g-----------------------------------------------------------------------|
d-------17--17--17--17--17--17--17--17----------------------------------|
a-----------------------------------------------------------------------|
e-----------------------------------------------------------------------|

Repeat verse again and just play
chords below when it gets to the
chorus one at a time. you can hear
it if you listen to the piano

play this piano verse riff twice every verse and just the chords below for all the other parts.

-------


I recommend playing these chords as power chords on the guitar.

verse 1
 Bm
You read the news
 G
Turns you inside out
 DA
And everybody feels
 G
The same as you
 Bm
Uncertain times
 G
The onset rules apply
 D
Caught in the blind spot
 AG
Of mirrored love

Chorus

 D
Can you feel
 A
 Real like you are?
 Bm
Can you feel alive?
 G
The way I feel your light
 D
And the biggest chance

That we can take
 A
Is so often wide awake
 Bm
 Hold me now
 G
So we can feel alive
 Bm
 Tonight

Verse 2

 Bm
 I need
 G
To feel you there
 D
I want to know
 AG
 Where i belong
 Bm
And I felt the sting
 G
The sting of corrosion
 D
I need a safe place
 AG
To close my eyes

chorus

 D
Can you feel
 A
 Real like you are?
 Bm
Can you feel alive?
 G
The way I feel your light
 D
And the biggest chance

That we can take
 A
Is so often wide awake
 Bm
 Hold me now
 G
So we can feel alive

verse 3

 BmG
 Oh, we were so lost
 DA
And there was so much more
 G
Than you could bear
 Bm
And i was cold in my defeat
 G
 You're alone and incomplete
 D
 When the sound
 AG
Could break down the walls

solo/break
The first guitar just plays these chords: D-A-Bm-G
2nd guitar plays this at 2:35
 Bm-G-
e-12--10----                e----------------------------------------|
b---------10                b-----------------------15---------------|(play w/effect
g----------- a guitar plays g--12-11---12-11--9/11-------------------|multiple times)
d----------- this over and  d---x--x----x--x--x--x-------------------|
a----------- over until the a--10--9---10--9--7/-9-------------------|
e----------- chorus         e----------------------------------------|


chorus

 D
Can you feel
 A
 Real like you are?
 Bm
Can you feel alive?
 G
The way I feel your light
 D
And the biggest chance

That we can take
 A
Is so often wide awake
 Bm
 Hold me now
 G
So we can feel alive

so i can feel alive
 Bm
tonight

Thanks please comment


A Bm D G
variations - click chord images
Transpose chords:
Tuning:
Cool service:
View: Size:
A  A  A
Rating:
Layout:
  • Currently 3/5 Stars.
  • 1
  • 2
  • 3
  • 4
  • 5
 
Accuracy:
  • Currently 2.7/5 Stars.
  • 1
  • 2
  • 3
  • 4
  • 5
 
click stars to rate
Chordie recommends:
Learn to play guitar with video-based, online guitar lessons at JamPlay.com
Songbook:
Login to add this song to your songbook
Support the artist
Preview/buy this song
MSN Music
Why this non-profit ad?

 
login to add comments/video/corrections